» » »

John Butler Trio, I'd Do Anything Tabs (ver.1)

Artists:  A B C D E F G H I J K L M N O P Q R S T U V W X Y Z # 

I'd Do Anything Tabs (ver.1)

John Butler Trio Tabs
 Rating:
4/5 (4 votes)
I'd Do Anything lessons Tabs too difficult? Try these video lessons and learn fast
1
                It's not perfect but it's the rough idea.
Let me know some feedback and enjoy :)

Intro

|--------------------------------------------x---|
|-9h11-9-------------------------------------x---|
|---------10--10h11p10------------10---------x---|
|---------------------11h13p11---------------x---|
|-9---------------------------------------8--x---|
|---------9---------------------9-----6------x---|

|-----------------------------------------------x---|
|-----------------------------------------------x---|
|---10h11-10-10--10h11p10------------10---------x---|
|------------------------11h13p11---------------x---|
|-9-9-------------------------------------------x---|
|------------9---------------------9-----6------x---|

Drums come in

|--------------------------------------------x---|
|-9h11-9-------------------------------------x---|
|---------10--10h11p10------------10---------x---|
|---------------------11h13p11---------------x---|
|-9---------------------------------------8--x---|
|---------9---------------------9-----6------x---|

|----------------------------------------------x---|
|----------------------------------------------x---|
|---10h11-13-10--10h11p10------------10--------x---|
|------------------------11h13p11--------------x---|
|-9-9---------------------------------------8--x---|
|------------9---------------------9-----6-----x---|

Verse


|--------------------------------------------x---|
|-9h11-9-------------------------------------x---|
|---------10----10h11p10--10--------10-------x---|
|-------------11--------11-------------------x---|
|-9--------------------------------------8---x---|
|---------9---------------------9-----6------x---|

|--------------------------------------------------------|
|--------------------------------------------------------|
|--10h11-11-10-----10h11p10--10------------8-8-8-8-8-----|
|----------------11--------11------8-8-8-8-8-8-8-8-8-----|   
|--9-------------------------------6-6-6-6-6-6-6-6-6-----|
|------------9-------------------------------------------|

Chorus

(Distorted guitar)
|-------------------------------------|
|-------------------------------------|
|-------9b--97----6666--6668888-------|
|-8888--------9---6666--6668888-------|  X4
|-8888------------4444--4446666-------|
|-6666--------------------------------|

Solo (during continued chorus)

|-----------------------------------------------------------------------|
|--9h11-9-------------------------------------9h11-9--------------------|
|---------10-10-8h10p8---10h11-13--10p8-8-8----------10-101010h1113p10--|
|----------------------------------------8------------------------------|
|-----------------------------------------------------------------------|
|-----------------------------------------------------------------------|

|-----------------------------------------------------------------------|
|-----------------------------------------------------------------------|
|-10p8-8-6-4p5-6-5-6---10-8-6--6-5h6-10p8----------10p8-----------10----|
|-------8--------------8--6-4------------10h11-10p11---10p11-10p11--11--|
|-----------------------------------------------------------------------|
|-----------------------------------------------------------------------|

|---------------------------------|
|-14-13-11-9----------------------|
|-13-13-11----10/11-13-10p8-------|
|--------------------------8------|
|---------------------------------|
|---------------------------------|

Verse
Chorus

Harmony part(during continued chorus)

|-----------------------------------------------|
|-9h11-9----------------------------------------|
|---------10--10h11p10------------10------------|
|---------------------11h13p11------------------|
|-9---------------------------------------8-----|
|---------9---------------------9-----6---------|

|-----------------------------------------------|
|-----------------------------------------------|
|---10h11-10-10--10h11p10------------10---------|
|------------------------11h13p11---------------|  X2
|-9-9-------------------------------------------|
|------------9---------------------9-----6------|

Verse/ Outro

|--------------------------------------------x---|
|-9h11-9-------------------------------------x---|
|---------10----10h11p10--10--------10-------x---|
|-------------11--------11-------------------x---|
|-9--------------------------------------8---x---|
|---------9---------------------9-----6------x---|

|---------------------------------------------|
|---------------------------------------------|
|--10h11-13-10-----10h11--10---10-11p10-10----|
|----------------11-----11--------------------|   
|--9------------------------------------------|
|-----------9-----------------9------------6--|

Verse1

You tell me what you want girl, 
You tell me what you need
You know you just say the word
I'll be right there, yes I'll be right there at your feet

Because you know you rock girl
And i love how we roll
But i left you all alone, all we got is the phone
And its never going to be enough

Verse 2

Living in this dug-out
A million miles away
Man, id wish they'd paint these walls
like an institution man I'm going crazy

Because when I;m far away from you girl
I lose myself
You know my train jumps off the tracks 
and all my pots fall off the shelf

Chorus

Oh, I'd do anything just to be with you
Oh, I'd do anything just to be with you girl, be with you

Verse 3

It's a little girls birthday
And yeah, we are apart
Aint gonna make a big deal out of it
whatever It's no hard

You tell her papa loves her yeah
And It won't be too long
'Til we're all together
and yes we're singing those songs

Verse 4

I escape into my T.V
I know you understand
Man, they call that sh*t reality
I'd like to see those fools in Afghanistan

Livin' In this cold damn world
Hell bent one self-destruction
What I need right now is a little bit of love
a little bit of love an affection

Chorus

Oh, I'd do anything just to be with you, girl!

Verse 5/ Outro

You tell me what you want girl, 
You tell me what you need
You know you just say the word
I'll be right there, yes I'll be right there at your feet


h - hammer on
p - pull-off
/ - slide up
            
Submit corrections

comments powered by Disqus
↑ Back to top | John Butler Trio Tabs for I'd Do Anything. Lyrics for acoustic guitar and electric guitar. 1 Tablatures and chords are parodies/interpretations of the original songs. You may use it for private study, scholarship, research or language learning purposes only