» » »

John Butler Trio, Gonna Take It Tabs (ver.1)

Artists:  A B C D E F G H I J K L M N O P Q R S T U V W X Y Z # 

Gonna Take It Tabs (ver.1)

John Butler Trio Tabs
 Rating:
4.3/5 (6 votes)
Gonna Take It lessons Tabs too difficult? Try these video lessons and learn fast
1
                

| /  slide up
| \  slide down
| h  hammer-on
| p  pull-off
| ~  vibrato
| +  harmonic
| x  Mute note

Tuning: standard (eBGDAE)



This song is quite repetitive so it doesn't have a lot of different parts
in it. These are the main three variations an works great on a standard
tuning even though I think Mr. Butler plays it on a dobro or at least with
an open tuning/slide. 

Intro/verse/first part of guitar solo:

The intro needs a bit explaining (this is boring I know, sorry. but it will
help you)The song starts off with Mr. Butler hitting the strings wich is
actually somewhat confusing. It gives us the impression that he is
accenting the first beat in the bar, but when the drums comes in you can
hear that it's really the 4th. So beware. The hitting of the muted strings
are marked *


e|-------------------------------*------|
B|-------------------------------*------|
G|-------------------------------*------|
D|------2----4/6------------2----*------|
A|--4---------------7-----4--2---*--2---|
E|-------------------------------*---00-|

Play it over and over and over and over and over and over


Pre-chorus:

             ("...And I will take it back to the beginning")
e|---------------------------------------------------------------------------|
B|---5-------5------5--------------------------------------------------------|
G|---4-------4------4--------------------------------------------------------|
D|---2-------2---------------------------------------------------------------|
A|---0-----------------------------------------------------------------------|
E|-----------4------2--------------------------------------------------------|

These are just the chords layed out the way I play it. 
I'm sure there are hundreds of ways to play this!




Chorus:

e|---------------------------------------------------------------------------|
B|----5---------5-------5--------5-------------------------------------------|
G|----4---------4-------4--------4-------------------------------------------|
D|----2--------------------------2-------------------------------------------|
A|--------------2----------------0-------------------------------------------|
E|----0-----------------4----------------------------------------------------|

Same goes for the chorus. Just the chords...





Great song! Good luck!

===============================================================================
            
Submit corrections

comments powered by Disqus
↑ Back to top | John Butler Trio Tabs for Gonna Take It. Lyrics for acoustic guitar and electric guitar. 1 Tablatures and chords are parodies/interpretations of the original songs. You may use it for private study, scholarship, research or language learning purposes only