» » »

Bound To Ramble Tabs (ver.1)

Artists:  A B C D E F G H I J K L M N O P Q R S T U V W X Y Z # 

Bound To Ramble Tabs (ver.1)

John Butler Trio
Rating:
5/5 (2 votes)

Hard to play? Try these video lessons and learn fast.
                -------------------------------------------------------------------------------
-------------------------------------------------------------------------------

Tuning: G D G B D

I did not tab this

Verse

D|-------7---|
B|---6----6--|
G|-----7---7-|  x44
D|--5---5----|
G|-----------|

Bridge

D|---8-----8--8-|
B|----10----10--|
G|------10------|  x4
D|--8-----------|
G|--------------|

Verse x4

Bridge x4

Verse x4

Bridge x4

Verse x4

Bridge x4

Verse x4

Chorus

D|-------3------3------3-----5-|
B|---1—1----1-1----1--1---3-3--|
G|----2------0------0------0---|  x4
D|--0---0--2------3------5-----|
G|-----------------------------|


Bridge x4

Verse x4

Bridge x4

Verse x4

Bridge x4

Verse x4

Bridge x4

Verse x4

Chorus x8

Outro (Same as Chorus) x8

Verse x8
            
Hard to play? Try these video lessons and learn fast. | Correct




comments powered by Disqus
↑ Back to top | Tablatures and chords are parodies/interpretations of the original songs. You may use it for private study, scholarship, research or language learning purposes only