>
 >
Bwv 1008 Minuet 1

Bwv 1008 Minuet 1 Guitar Tabs

Johann Sebastian Bach - Bwv 1008 Minuet 1 chords, tabs, tablatures, lyrics

Guitar lessons | Add/correct | Request | Top 50 tabs Artists:  A B C D E F G H I J K L M N O P Q R S T U V W X Y Z 0-9

Bwv 1008 Minuet 1 Guitar Tabs – Johann Sebastian Bach

CD, Sheet music, Poster

Do you like Bwv 1008 Minuet 1? Share with your friends now
Tabs
E-|---Song:-BWV1008-Menuet-1-----------------------|
A-|---Composer:-Johann-Sebastian-Bach--------------|
D-|---Transcription-by:Christian Liang-------------|
E-|---Enjoy!---------------------------------------|

          BWV 1008 Menuet I by Johann Sebastian Bach (1685-1750)


[1]
E||0==============-1-------|-1---0---1-------0-------|
B||1==============---------|-------------3-----------|
G||2==============---------|-------------------------|
D||------------------------|-------------------------|
A||0==============---------|-0======================-|
E||------------------------|-------------------------|
   | | | | | | | | | | | |   | | | | | | | | | | | |  
   |       |       |         |       |       |
L  1               1         1       1   3
   3

R                  a         a   m   i   m   a
                             p

[3]
E|-0==============---------|-------------------------|
B|---------3-------1---0---|-1---0-------------------|
G|-2==============---------|---------2---1-----------|
D|-3==============---------|-----------------4---2---|
A|-------------------------|-------------------------|
E|-1==============---------|-0======================-|
   | | | | | | | | | | | |   | | | | | | | | | | | |  
   |       |       |         |       |       |
L  2       4       1         1       2   1   4   2
   3
   1

R          m       i   m     a   m   i   m   i   m
                             p

[5]
E|-0==============-1-------|-1---0---1-------3-------|
B|-1==============---------|-------------3-----------|
G|-2==============---------|-0===============--------|
D|-------------------------|-------------------------|
A|-0======================-|-2===============--------|
E|-------------------------|-------------------------|
   | | | | | | | | | | | |   | | | | | | | | | | | |  
   |       |       |         |       |       |
L  1               1         1       1   3   4
   3                         2

R                  a         a   m   i   m   a
                             p


[7]                          IV3.....................
E|-0-------5-------7-------|-4======================||
B|-1---------------6-------|-5======================||
G|---------5-------7-------|-4=====================*||
D|---------3-------0-------|-----------------------*||
A|-3-----------------------|-7======================||
E|-------------------------|------------------------||
   | | | | | | | | | | | |   | | | | | | | | | | | |  
   |       |       |         |       |       |
L  1       4       4         1
   3       3       2         2
           1       3         1
                             4

[9]
E||7==============-5---7p8-|-7---5---4---7-----------|
B||5==============---------|-0---------------5-------|
G||------------------------|---------------------7---|
D||6==============---------|-0======================-|
A||------------------------|-------------------------|
E||0======================-|-------------------------|
   | | | | | | | | | | | |   | | | | | | | | | | | |  
   |       |       |         |       |       |
L  4               1   3 4   4   2   1   4   1   3
   2
   3

R                  m   i     a   m   i   a   m   i

[11]
E|-0-------5-------4-------|-10--8---7---8---5-------|
B|-----------------3-------|---------------------8---|
G|-2==============---------|-9-----------------------|
D|-------------------------|-------------------------|
A|-3==============-2-------|-0===============--------|
E|-------------------------|-------------------------|
   | | | | | | | | | | | |   | | | | | | | | | | | |  
   |       |       |         |       |       |
L  1       4       3         4   2   1   2   1   4
   2               2         3
                   1

R                                m   i   m   a   m

[13]
E|-------------------------|-0-------0-------5-------|
B|-6==============-8-------|-1---3-------1---0-------|
G|-7==============-7-------|-----------------0-------|
D|-0-----------------------|-----------------3-------|
A|-------------------------|-3===============--------|
E|---------8-------7-------|-------------------------|
   | | | | | | | | | | | |   | | | | | | | | | | | |  
   |       |       |         |       |       |
L  1       4       4         1   4       1   4
   3               3         3               2
                   1

[15]
E|-3-------1---0-------0---|-------------0-------1---|
B|-1==============-3-------|-1-------1-------3-------|
G|-0==============---------|-----4-------------------|
D|-2======================-|-------------------------|
A|-------------------------|-------------------------|
E|-------------------------|-------------------------|
   | | | | | | | | | | | |   | | | | | | | | | | | |  
   |       |       |         |       |       |
L  4       1       4         1   4   1       4   1
   1
   2

[17]tr                                       tr
E|-1p0h1p0==-------1======-|-3---1---3---0-----------|
B|-2========---------------|-----------------3p2h3p2-|
G|-2========---------------|---------3======-0======-|
D|-------------------------|-------------------------|
A|---------0==============-|-1=======----------------|
E|-------------------------|-------------------------|
   | | | | | | | | | | | |   | | | | | | | | | | | |  
   |       |       |         |       |       |
L  1p0h1p0         1         4   2   4       3p2h3p2
   3                         1       3
   2

R                            a   m   a   m
                             p       p

[19]
E|-5-------3-------1---0---|-3---1---0---1-------1---|
B|-3-------3---------------|-----------------3-------|
G|---------0======-2======-|-2======================-|
D|-3=======----------------|-0======================-|
A|-------------------------|-------------------------|
E|-------------------------|-------------------------|
   | | | | | | | | | | | |   | | | | | | | | | | | |  
   |       |       |         |       |       |
L  4       4       1         4   1       1   3
   2       3       2         2
   1

R                            a   m   i   a   i   a

[21]
E|-5-------4======-5-------|-------------------------|
B|-0---------------5-------|-3-------3-------1-------|
G|-------------------------|-----5-------4---2-------|
D|-0=======----------------|-------------------------|
A|-----------------3======-|-----------------0======-|
E|-------------------------|-4==============---------|
   | | | | | | | | | | | |   | | | | | | | | | | | |  
   |       |       |         |       |       |
L  4       2       4         1   5   1   2   1
                   3         2               2
                   1

R                            m   i   m   i

[23]       tr
E|-------------------------|------------------------||
B|-----3---1p0h1p0====-----|------------------------||
G|---------------------2---|-2=====================*||
D|-0-----------------------|-2=====================*||
A|-------------------------|-0======================||
E|---------0==============-|------------------------||
   | | | | | | | | | | | |   | | | | | | | | | | | |  
   |       |       |         |       |       |
L      4   1p0h1p0     3     3
                             2


Legend
Cello Suite II
Time Signature: 3/4
Key Signature: Part A: A Minor
               Part B: A Major


Right
p = pulgar = thumb
i = indice = index
m = medio = middle
a = anular = ring

Left
p = pull off
h = hammer on
/ = slide
= = suspend/hold Note
IV3 = Barre at fret 4 bottom 3 strings
tr= trill (hammer on/pull off quickly)





Comments


Popular Johann Sebastian Bach tabs & chords
Jesus Bleibet Meine Freude Jesu Chords
Anh 114 Minuet In G Tabs
Aria Goldberg Tabs
Bwv 1008 Minuet 2 Tabs
Chaconne Part 1 Tabs
Jesu Joy Of Mans Desiring Tabs
Minuet In G 4 Tabs
Sleepers Awake Tabs
Violin Concerto No 2 In E Major Bwv 1042 Allegro Tabs
Jesus Bleibet Meine Freude Jesu Ukulele


Song lyrics



↑ Back to top | Tablatures and chords are parodies/interpretations of the original songs. You may use it for private study, scholarship, research or language learning purposes only
© 2014 AZChords.com Contact us | Privacy policy | DMCA | Add/correct tabs | Request tabs | Top 50 tabs