>
 >
Bwv 1008 Minuet 2

Bwv 1008 Minuet 2 Guitar Tabs

Johann Sebastian Bach - Bwv 1008 Minuet 2 chords, tabs, tablatures, lyrics

Guitar lessons | Add/correct | Request | Top 50 tabs Artists:  A B C D E F G H I J K L M N O P Q R S T U V W X Y Z 0-9

Bwv 1008 Minuet 2 Guitar Tabs – Johann Sebastian Bach

CD, Sheet music, Poster

Do you like Bwv 1008 Minuet 2? Share with your friends now
Tabs
E-|---Song:-BWV1008-Menuet-2-----------------------|
A-|---Composer:-Johann-Sebastian-Bach--------------|
D-|---Transcription-by:Christian Liang-------------|
E-|---Enjoy!---------------------------------------|

         BWV 1008 Menuet II by Johann Sebastian Bach (1685-1750)

Key: A Major

[1]tr
E||------------------------|-0==============-0-------|
B||2---------------2---3---|-2==============---------|
G||2-------2---4-----------|-2==============---------|
D||2-----------------------|-------------------------|
A||0======================-|---------4==============-|
E||------------------------|-------------------------|
   | | | | | | | | | | | |   | | | | | | | | | | | |  
   |       |       |         |       |       |
L  3       1   3   1   2     2       4
   2                         1
   1

[3]
E|-------------------------|-------------------------|
B|---------0-------3-------|-------------------------|
G|-------------------------|-2---1-------1-----------|
D|-----4-------------------|---------4-------2---0---|
A|-5==============---------|-------------------------|
E|-------------------------|-0======================-|
   | | | | | | | | | | | |   | | | | | | | | | | | |  
   |       |       |         |       |       |
L  4   3           3         2   1   4   1   2

[5]
E|-----5---4---2---0-------|-3---0-------------------|
B|---------------------3---|---------3---2---0-------|
G|-------------------------|---------------------2---|
D|-------------------------|-0======================-|
A|-4======================-|-------------------------|
E|-------------------------|-------------------------|
   | | | | | | | | | | | |   | | | | | | | | | | | |  
   |       |       |         |       |       |
L  2   4   3   1       1     2       2   1       3

[7]                          tr
E|-----------------------0-|------------------------||
B|---------3-------2---3---|-0=====================-||
G|-1---2-----------2-------|-1=====================*||
D|-2==============-2-------|-2=====================*||
A|-----------------0---0---|------------------------||
E|-------------------------|-0=====================-||
   | | | | | | | | | | | |   | | | | | | | | | | | |  
   |       |       |         |       |       |
L  1   3   4       3   4     1
   2               2         2
                   1

[9]IV3.....
E||4-------7---5---4-------|-4==============-4-------|
B||5-------------------7---|-5==============---------|
G||4-----------------------|-4==============---------|
D||------------------------|-0-------0---------------|
A||------------------------|-------------------------|
E||0======================-|-------------------------|
   | | | | | | | | | | | |   | | | | | | | | | | | |  
   |       |       |         |       |       |
L  1       4   3   1   4     2               2
   2                         3
   1                         1

[11]
E|---------5-------9-------|-2---0---------------2---|
B|-----5-------------------|---------3---2---3-------|
G|-------------------------|-------------------------|
D|-------------------------|-0======================-|
A|-4===============--------|-------------------------|
E|-------------------------|-------------------------|
   | | | | | | | | | | | |   | | | | | | | | | | | |  
   |       |       |         |       |       |
L  1   2   3       4         1       2   1   2   1


[13]I..............IV......
E|-----5---4---2---4-------|-------------------------|
B|---------------------6---|-----7---5---3---2---0---|
G|-------------------------|-------------------------|
D|-------------------------|-------------------------|
A|-2==============-4-------|-0======================-|
E|-------------------------|-------------------------|
   | | | | | | | | | | | |   | | | | | | | | | | | |  
   |       |       |         |       |       |
L  1   4   3   1   1   3         3   2   2   1
                   1

[15]
E|-------------------------|-------------------------|
B|-3---2---0---------------|-------------0---2---3---|
G|-------------2---1---2---|-----1---2---------------|
D|-------------------------|-4-----------------------|
A|-2===============--------|-0======================-|
E|-------------------------|-------------------------|
   | | | | | | | | | | | |   | | | | | | | | | | | |  
   |       |       |         |       |       |
L  4   3       2   1   2     4   1   2       1   2
   2


[17]
E|-----------------0---2---|-3==============-3-------|
B|-5---3---2---3-----------|-2==============---------|
G|-------------------------|-0==============---------|
D|-------------------------|-2==============---------|
A|-------------------------|-1-------1---------------|
E|-4===============--------|-------------------------|
   | | | | | | | | | | | |   | | | | | | | | | | | |  
   |       |       |         |       |       |
L  4   2   1   2       4     4       1       4
                             3
                             2
                             1

[19]
E|-2---0---3---2---0-------|---------0---------------|
B|---------------------3---|-2---3-------2---3---0---|
G|-------------------------|-------------------------|
D|-------------------------|-------------------------|
A|-1======================-|-1==============-2-------|
E|-------------------------|-------------------------|
   | | | | | | | | | | | |   | | | | | | | | | | | |  
   |       |       |         |       |       |
L  2       4   2       4     3   4       3   4  
   1                         1               2

[21]tr
E|-------------------------|-------------2---0-------|
B|-------------------------|-0---2---3---------------|
G|-1---------------1---2---|-------------------------|
D|-2-------2---4-----------|-0==============---------|
A|-------------------------|-----------------4-------|
E|-0======================-|-------------------------|
   | | | | | | | | | | | |   | | | | | | | | | | | |  
   |       |       |         |       |       |
L  1       2   4   1   2         1   2   1   3
   3


[23]
E|-------------------------|------------------------||
B|-3---2-----------0-------|------------------------||
G|---------4---2-------1---|-2=====================*||
D|---------0-------2-------|-2=====================*||
A|-------------------------|-0======================||
E|-------------------------|------------------------||
   | | | | | | | | | | | |   | | | | | | | | | | | |  
   |       |       |         |       |       |
L  2   1   4   1   2   1     2
                             3

Legend
Cello Suite II
Time Signature: 3/4
Key Signature: A Minor

Right
p = pulgar = thumb
i = indice = index
m = medio = middle
a = anular = ring

Left
p = pull off
h = hammer on
/ = slide
= = suspend/hold Note
IV3 = Barre at fret 4 bottom 3 strings
tr= trill (hammer on/pull off quickly)





Comments


Popular Johann Sebastian Bach tabs & chords
Cello Suite No 1 Minuet 12 Bass Tabs
Bwv 1005 - Largo Tabs
Bwv 1034 - Andante G Major Tabs
Bwv 1056 - Largo Tabs
Bwv 595 Tabs
Bwv 775 - Two-part Invention No 4 In Dm Tabs
Bwv 847 - Fugue No 2 In Cm Tabs
Bwv 995 Sarabande In G Minot Tabs
Minuet In G 2 Tabs
O Haupt Voll Blut Und Wunden Tabs


Song lyrics



↑ Back to top | Tablatures and chords are parodies/interpretations of the original songs. You may use it for private study, scholarship, research or language learning purposes only
© 2014 AZChords.com Contact us | Privacy policy | DMCA | Add/correct tabs | Request tabs | Top 50 tabs