>
 >
Arioso

Arioso Guitar Tabs

Johann Sebastian Bach - Arioso chords, tabs, tablatures, lyrics

Guitar lessons | Add/correct | Request | Top 50 tabs Artists:  A B C D E F G H I J K L M N O P Q R S T U V W X Y Z 0-9

Arioso Guitar Tabs – Johann Sebastian Bach

CD, Sheet music, Poster

Do you like Arioso? Share with your friends now
TabsTabs v2
----------------------------------------------------------------------------
----------------------------------------------------------------------------



Tuning: (Standard) Drop D



E||------------------------|------------------------|
B||---------------------0--|------------------------|
G||---------------0--2-----|------------------0--2--|
D||--4---------0-----------|--4----2-------4--------|
A||-------0----------------|--0---------4-----------|
D||--0---------------------|------------------------|

  
-------------------------|-----0-------------------|----------------------|
-----3--0----------------|--------2----------------|----------------------|
-----------0------2p-0---|--0--------2--0-------0--|--0-------------------|
-0---------------------4-|-------------------4-----|-----4--2--0--4-------|
-2---------0----4--------|--0-----------4----0-----|-------------------4--|
-------------------------|-------------------------|--0-------------------|

  
-------------------------|----------------------|-------------------------|
--3------------2p-0-2--3-|-----------------0--3-|-2-----------0-----------|
------------4------------|--------------1-------|-----------2---2p-1------|
-------4-----------------|-2---------2----------|------2-------------4--2-|
--2----------------------|------2---------------|-0-----------------------|
-------------------------|-2--------------------|-------------------------|

  
----------------------------|------------------------------|
-------------------------2--|--0------------------0--------|
----------------------2-----|--------------2p-1-2---1------|
--0------2p-0---0--4--------|------------2------------2p-0-|
-------0------4-------------|-------2----------------------|
--4-------------0-----------|--2---------------------------|

     
-----------------------|----------------2-----------|--------------------|
-----------0-----------|-------2-3p-2-3-------------|--------------------|
--------1-----2--------|-----4------------1-------2-|--2---------2----0--|
-----2-------------2---|----------------------------|-------2------------|
--4-----------4--------|---------2--------2----2----|--0-----------------|
--2--------------------|--0-------------------------|--------------------|

  
--------------------------|------------------------|
--------------0-----------|------------------------|
--5---------------0-------|---------------------0--|
--4-------------7---4--2--|--1---------1--2--4-----|
-------0----6-------------|--2----2----------3-----|
--------------------------|------------------------|

   
--------------2--------------|--------------3----------|
--------1--4----------0-1p-0-|----------------------0--|
--2--4-----------2-----------|--2--0-------------------|
--------------1--------------|--------4--2-------2-----|
--------------------2--------|--------------2----------|
--1--------------------------|--2----------------------|

 
-----------3--2p-0----0--------|------------------2------------|
--1p-0---0---------4--------0--|--0--------0-1p-0--------------|
-------2-----------------------|----1-2-------------------2p-0-|
-----------2-------------4-----|---------2--------0------------|
-------------------2-----------|--3--------------------3-------|
--0----------------------------|-------------------------------|

   
--------0--2--3--2-----0-|-0------------------|-----------------------0-|
-----0--1-----------0----|-0------------------|-------------------------|
---0----2----------------|-0---------0--------|-0-----------2p-0---0----|
-4-----------------------|------2---------0---|------2-----------4------|
-2------0-----2----------|--------------------|-4---------0--------4----|
-------------------------|-2------------------|-------------------------|

  
------------------------|-----------------------------------|
------------------------|----------------0h-1-3----0--------|
--0---------------------|--0h-2-0---0h-2---------5---5---5--|
-------4-------0--2--4--|---------4-----------0--------4----|
------------3-----------|--2--------------------------------|
--0---------------------|----------------------------0------|

  
------------------------|----------------------------------|
-------0----------------|----------------------------------|
---------------------0--|----------------------------------|
-------0-------2--4-----|------------0-----0--2h-4-2-0-2-4-|
------------------------|--4p--2--4-----4------------------|
--5---------5-----------|--2------------------2------------|

  
-----------0-------------------|--------------------------|
-------------------------------|--------3--0--------2--3--|
--0-----0---------0h-2-0-------|-----2--------2--0--------|
-----4----------4--------4p-2--|--4-----------------------|
--4-----------4--------0-------|--------------------------|
-------------------------------|--0-----------0-----------|

  
----------------------|----------------------------|
----------------------|-------------------------0--|
----------------------|----------------0---2p-0----|
--4----2--------------|--4-----------2---4---------|
--0---------4----0----|-------0--------------------|
----------------------|--0---------0---------------|

    
-----------------------------|------------------------|
--0--------------------------|--------3--0------------|
----------------------0---2--|--2-----------2----0----|
-----2---------0-4p-2---4----|-----0------------------|
--------4----0--------4------|--2-----------2---------|
--5--------------------------|------------------------|

  
-----0--------------------|---------------------------------|
--------2-----------------|---------------------------------|
-----------2--2--0-----0--|--0---0h-2-0---------------------|
--------------------4-----|----4--------4-2p-0-0----3p-2-3--|
--0-----------------0-----|---------------------------------|
--------------5-----------|--0-----------------4------------|

  
-------------------------|-----------------------------|
-------------------------|-----------------------------|
-------------------------|----------------0------------|
--------0---0--0---------|--0h-2-0---0-0------------0--|
--2--4----4----2---------|--0------4---------4---------|
--5-----------------6----|-------------5-----7---7-----|

   
--------------------------|--------------------------------|
--------0-----------------|-----0h-2-3p-0------------------|
----------1-2--2-------2--|------------------0----------0--|
--0--4--------------------|----------0----4------4-2h-4----|
--------2------0----4-----|--2-----------------------------|
--0-----------------------|------------------5-------------|

  
------------------------------|------------------------------|
------------------------------|-----0----2p-0---0------------|
--------------------------0---|---------------3--------------|
--0-------------4----0h-4---1-|-------------------4----2---4-|
-----4--7p-5-7--0-------------|--2---------------------------|
--7---------------------------|--0-----5----------0----5-----|

            
-------0-----------------|-------------------|-------------------|
-------2--3--3--2--2--0--|--2----------------|--0----------------|
----------4--4--3--3--1--|--3----------------|-------------------|
--4----------------------|--4----------------|--0----------------|
-------------------------|-------------------|--2----------------|
--4----------------------|--4----------------|-------------------|

| /  slide up
| \  slide down
| h  hammer-on
| p  pull-off
| ~  vibrato
| +  harmonic
| x  Mute note
===========================================================================





Comments


Popular Johann Sebastian Bach tabs & chords
Bwv 147 Jesu Joy Of Mans Desiring Chords
Jesus Bleibet Meine Freude Jesu Chords
Bwv 1007 Cello Suite Prelude Tabs
Bwv 1010 Bourree Tabs
Bwv 1080 - Contrapunctus I Tabs
Bwv 995 Sarabande In G Minot Tabs
Bwv 998 - Fugue Tabs
Cello Suite Prelude Tabs
Grave From Violin Sonata 2 In Am Tabs
Jesu Joy Of Mans Desiring Tabs


Song lyrics



↑ Back to top | Tablatures and chords are parodies/interpretations of the original songs. You may use it for private study, scholarship, research or language learning purposes only
© 2014 AZChords.com Contact us | Privacy policy | DMCA | Add/correct tabs | Request tabs | Top 50 tabs