» » »

Johann Sebastian Bach, Bouree Tabs (ver.1)

Artists:  A B C D E F G H I J K L M N O P Q R S T U V W X Y Z # 

Bouree Tabs (ver.1)

Johann Sebastian Bach Tabs
 Rating:
2.1/5 (67 votes)
Bouree lessons Tabs too difficult? Try these video lessons and learn fast
                -------------------------------------------------------------------------------
                               Bouree - Bach
-------------------------------------------------------------------------------


Tuning:EADGBe

This is a very familiar Classical tune that EVERY guitarist should know
to be called a guitarist. 


E|--0--2--|--3----2--0-------0--2--|-------------0----------|
B|--------|-------------4----------|--0----2--4-------3--1--|
G|--------|------------------------|------------------------|
D|--------|------------------------|------------------------|
A|--------|-------0-----2----0-----|------------------------|
E|--3--2--|--0---------------------|--3----2-----0----2-----|
                                                                             
e|------------------------|--------------------0--2--|--3----2--0-------0--2--|
B|--0---------------------|--0-----------------------|-------------4----------|
G|-------2--0-------0--2--|-----2--0-----------------|------------------------|
D|-------------4----------|-----------4--2-----------|------------------------|
A|-------0-----2----0-----|--------2-----------------|-------0-----2----0-----|
E|--3---------------------|--3-----------0--2--3--2--|--0---------------------|


                                                                           
-------------0----------|---------------------------|---------------0--2--|
--0----2--4-------3--1--|--0------------------------|---------------------|
------------------------|-------2--0--------0----0--|--0------------------|
------------------------|-------------4-2-4---4-----|--0------------------|
------------------------|-------3-----5-------5-----|--2------------------|
--3----2-----0----2-----|--3------------------------|--3------------3--2--|


                                                                        
---------------------|------------------3-----|--0---------------------|
---------------0-----|--3-------1--0-------3--|----------3--1----------|
--0---------------0--|-------2----------------|-------4----------4--2--|
--0------------------|-------0----------------|------------------0-----|
--2------------------|------------------2-----|--3----------0----------|
--3------------3-----|--2----------3----------|-------4----------------|



                                                                            
------------------------|-------------------------|-------3-----0----------|
----------0--1----0-----|-------------------3-----|--0-------3----------3--|
--1----2-------------2--|--2-------------------2--|------------------4-----|
--2----------2----------|-------------------0-----|------------------------|
-------0----------------|--0--2--0----------------|-------2-----3----------|
------------------0-----|-----------3--2----------|--3---------------4-----|


                                                                                
-------5-----2-------0--|----------------------------|-------------------7-----|
--1-------5-------2-----|--3----2--0--------------0--|--0-------------------7--|
------------------------|-------------4-3-4-3-4-3----|-------------------------|
-------------0----------|-------2-----4--------------|--------------1----------|
--0----4----------1-----|--2-------------------------|--2--1--2--4-------------|
------------------------|---------------------2------|-------------------7-----|


                                                                           
-------------5-------3--|--2----0-----3-------1--|--0----5--0--2-------0--|
--9----7--5-------5-----|----------3-------3-----|------------------2-----|
------------------------|------------------------|------------------------|
------------------------|--0---------------------|------------------------|
--7----5-----4----------|-------3-----2----------|--3----2-----0----------|
------------------5-----|------------------3-----|------------------2-----|


                                                                               
-------------------0-----|--------------------------|-------------------------|
--4-------------------0--|--1-----3-----0-----1-----|--------0----------------|
-------4-----------------|-----------2-----------0--|--2-----------0----------|
-------------------------|-----2--4--------1--2-----|-----------4-------4--2--|
--2-------3--2--0--------|--0-----------------------|-----4--6----------0-----|
-------------------4-----|--------------3-----------|--2-----------0----------|


                                                                       
---------------------------|---------------------|-------------------|
---------------------------|---------------0-----|-------------------|
-------------0----0--------|------------------0--|-------------------|
--1----2--4-----4---4-2-4--|--2------------------|--2----------------|
--2----0-----2-------------|---------------------|--2----------------|
---------------------------|--0------------3-----|--0----------------|
            
Submit corrections

comments powered by Disqus
↑ Back to top | Johann Sebastian Bach Tabs for Bouree. Lyrics for acoustic guitar and electric guitar. Tablatures and chords are parodies/interpretations of the original songs. You may use it for private study, scholarship, research or language learning purposes only