» » »

Johann Sebastian Bach, Bouree Tabs (ver.2)

Artists:  A B C D E F G H I J K L M N O P Q R S T U V W X Y Z # 

Bouree Tabs (ver.2)

Johann Sebastian Bach Tabs
Rating:
5/5 (1 vote)
Bouree lessons Tabs too difficult? Try these video lessons and learn fast
                BOURREE In E Minor-J.S. Bach

Key: E Minor/G Major
  4/4
    E E   Q  E E Q E E   Q E E Q E E   Q E E Q E E   E E E E E E E E
||--0-2-|-3--2-----0-2-|-------------|-------------|-------------0-2-|
||o-----|------5-4-----|-0-2h4-5-3p1-|-0-----------|-0---------------|
||------|--------------|-------------|---2-0---0-2-|---2-0-----------|
||------|--------------|-------------|-------4-----|-------4-2-------|
||o-----|----0---2-0---|-------------|---0---2-0---|---0-2-----------|
||--3-2-|-0------------|-3-2---0-2---|-3-----------|-3-------0-2-3-2-|
    E E   Q  Q   Q Q     Q Q   Q Q     Q Q   Q Q     Q   Q   E E E E  
                                               __________  _________
                                              | 1         | 2
  Q E E Q E E   Q E E Q E E   Q E E a  E. Q E   H. E E     H.  E E
|-3-2-----0-2-|-------------|-----------------|-----0-2--||---------||
|-----5-4-----|-0-2-4-5-3-1-|-0---------------|---------o||-----0---||
|-------------|-------------|---2p0---------0-|-0--------||-0-----0-||
|-------------|-------------|-------4tr5------|-0--------||-0-------||
|---0---2-0---|-------------|---0----5----5---|-2-------o||-2-------||
|-0-----------|-3-2---0-2---|-3---------------|-3--3-2---||-3---3---||
  Q Q   Q Q     Q Q   Q Q     Q Q    Q   Q      H. E E     H.  Q

  Q E E Q E E   Q E E Q E E   Q E E Q E E   H.         E E   Q E E Q E E
|----------3---|-0-----------|-------------|----------------|---3---0-----|
|o-3---1-0---3-|-----3---0---|-----0-1-0---|------------3---|-0---3-----3-|
|----2---------|---4---5---2-|-1-2-------2-|-2------------2-|---------4---|
|----0---------|---------0---|-2-----2-----|------------0---|-------------|
|o---------2---|-3-----0-----|---0---------|-0-2-0----------|---2---3-----|
|--2-----3-----|---4---------|---------0---|-------3-2------|-3-------4---|
  Q     Q Q     Q Q   Q Q     Q Q   Q Q     E E E E Q  Q     Q Q   Q Q

  Q E E Q E E   Q E E a  Q E E   H.        E E   Q E E Q E E
|---5-------0-|----------------|-----------7---|-------5-0-3-|
|-----5-7-2---|-3-2-0--------0-|-0-----------7-|-9-7-5-------|
|-5-----------|-------3tr4-----|---------------|-------------|
|-------0-----|---2----4-------|---------------|---0---------|
|-0-4-----1---|-2--------------|-2-1-2-4-6-----|-7-----4-0---|
|-------------|-----------2----|-----------7---|-------------|
  Q Q   Q Q     Q Q    Q  Q     E E E E Q Q     Q Q   Q Q

  a  Q E E Q E E   Q E E Q E E   Q H       E E   Q   E E Q   E E
|-2tr3-0---3---1-|-0-5-0-2---0-|-----------0---|-----------------|
|--------3---3---|---------2---|-4-0---------0-|-1---3---0---1---|
|----------------|-------------|---------------|-------2-------0-|
|--0-------------|-------------|---------------|---2-4-----1-2---|
|------3---2-----|-3-2---0-----|-2---3-2-0-----|-0---------------|
|------------3---|---------2---|-----------4---|---------3-------|
   Q   Q   Q Q     Q Q   Q Q     Q.  E E E Q     E E Q   E E Q
                                    ____________  ____________
                                   | 1           | 2
  Q   E E Q  E E   Q  E E Q a  E E   H.    E E     H.      Q
|----------------|-----------------|------------||------------||
|----------------|-----------------|-------0---o||------------||
|-2---4----------|-----------------|---------0--||------------||
|-------4-5--4-2-|-1--2-4-5-4tr5-2-|-2----------||-2----------||
|---4-6------0---|-2--0---2--------|-----------o||------------||
|-2-------0------|-----------------|-0-----3----||-0----------||
  E E Q   Q  E E   Q  Q   H          H.    Q       H.      Q
            
Submit corrections

comments powered by Disqus
↑ Back to top | Johann Sebastian Bach Tabs for Bouree. Lyrics for acoustic guitar and electric guitar. Tablatures and chords are parodies/interpretations of the original songs. You may use it for private study, scholarship, research or language learning purposes only