» » »

Jessie J, Domino Tabs (ver.1)

Artists:  A B C D E F G H I J K L M N O P Q R S T U V W X Y Z # 

Domino Tabs (ver.1)

Jessie J Tabs
 Rating:
4/5 (11 votes)
Domino lessons Tabs too difficult? Try these video lessons and learn fast
                Hey, first tab I submit. I've been playing guitar for three years now so I'm confident 
this tab is correct.
My guitar is a Ibanez RG 170 and the second position of your
5-way switch counted from the lower side of the switch works best soundwise.

Intro:

----------------------------------------------------------|
----------------------------------------------------------|
----7----7---5--5---5-5-5-----4----4---5--5---5-5-5-------|
----5----5---5--5---5-5-5-----5----5---5--5---5-5-5-------|
----------------------------------------------------------|
----------------------------------------------------------|

----------------------------------------------------------|
----------------------------------------------------------|
----7----7---5--5---5-5-5-----4----4---5--5---5-5-5-------|
----5----5---5--5---5-5-5-----5----5---5--5---5-5-5-------|
----------------------------------------------------------|
----3----3---3--3---3-3-3-----3----3---3--3---3-3-3-------|

(You could add the bassline to your guitar playing as shown here. Otherwise just play 
the guitar intro the whole song)

Chorus:

----------------------------------------------------------|
----------------------------------------------------------|
----7----7---5--5---5-5-5-----4----4---5--5---5-5-5-------|
----5----5---5--5---5-5-5-----5----5---5--5---5-5-5-------|
----3----3--------------------7----7---5--5---5-5-5-------|
-------------5--5---5-5-5---------------------------------|


Have Fun
            
Submit corrections

comments powered by Disqus
↑ Back to top | Jessie J Tabs for Domino. Lyrics for acoustic guitar and electric guitar. Tablatures and chords are parodies/interpretations of the original songs. You may use it for private study, scholarship, research or language learning purposes only