>
 >
Big White Room

Big White Room Guitar Tabs

Jessie J - Big White Room chords, tabs, tablatures, lyrics

Guitar lessons | Add/correct | Request | Top 50 tabs Artists:  A B C D E F G H I J K L M N O P Q R S T U V W X Y Z 0-9

Big White Room Guitar Tabs – Jessie J

CD, Sheet music, Poster

Do you like Big White Room? Share with your friends now
ChordsTabsTabs v2Ukulele
JESSIE J- BIG WHITE ROOM

NO CAPO: STANDARD TUNING

Simple/beautiful song to play (power chords are simple,however their names dont look pretty).
Tried to explain the strumming/picking as simple as possible- sounds better with a plectrum
(FOR BEGINNERS: D=down strum & U=up strum & ^= hammer /=slide)
Any problems with strumming- consult the video :)

CHORDS

EM7omit3  E5     DM7sus2add6      D5       Aadd2
e|-0-|    e|-0-|     e|-0-|        e|-0-|      e|-0-|
B|-0-|    B|-0-|     B|-0-|        B|-0-|      B|-0-|
G|-8-|    G|-9-|     G|-6-|        G|-7-|      G|-6-|
D|-9-|    D|-9-|     D|-7-|        D|-7-|      D|-7-|
A|-7-|    A|-7-|     A|-5-|        A|-5-|      A|-7-|
E|-X-|    E|-X-|     E|-X-|        E|-X-|      E|-5-|


   D    U U  D     U U  D
e|-0----0-0--0-----0-0--0---------------|
B|-0----0-0--0-----0-0--0---------------|
G|-8^9--9-9--8-----8-8--8---------------|
D|-9----9-9--9-----9-9------------------|       X2
A|-7----7-7--7-----7-7------------------|
E|-X----X-X--X-----X-X------------------|


   D    U U  (DUUD)
e|-0----0-0--0-------------------------|
B|-0----0-0--0-------------------------|
G|-6^7--7-7--6-------------------------|
D|-7----7-7--7-------------------------|
A|-5----5-5--5-------------------------|
E|-X----X-X--X-------------------------|

              D   (UUDUU)
e|------------0---0--------------------|
B|------------0---0--------------------|
G|---6--------6---6--------------------|
D|-----7----------7--------------------|
A|-------7--------7--------------------|
E|-5-------5------5--------------------|

repeat this throughout the song

For the last part (to make it simpler)you can just strum (DUUD)
on Aadd2 chord instead of picking IF you want.


-----------------------------------------------------------------

****So the ENDING bit of the song is slightly different where she sings:
"everybody's looking at me, everybody's staring at me, what do i do now?...SMILE" twice
and then there is a solo bit.

MOST of the power chords formation is that of E5,
just you are sliding up and down the frets,
so the chords used are:

THE SAME chords as above PLUS+++ the following:

F#5        G#5        A5          B5     Asus2
e|-0--|     e|-0--|      e|-0--|      e|-0-|   e|-0-|
B|-0--|     B|-0--|      B|-0--|      B|-0-|   B|-0-|
G|-11-|     G|-13-|      G|-14-|      G|-4-|   G|-2-|
D|-11-|     D|-13-|      D|-14-|      D|-4-|   D|-2-|
A|-9--|     A|-11-|      A|-12-|      A|-2-|   A|-0-|
E|-X--|     E|-X--|      E|-X--|      E|-X-|   E|-X-|

THE FIRST TIME: @(3:27)

SHE SINGS "everybody's looking at me, everybody's staring at me, what do i do now?...SMILE"

PLAY: E5 EM7omit3 D5 Aadd2 B5

ie.

  (DUUDUUDUDU)   (DUUDUUDUDU)    (DUUDUUDU)  (DU)   D
e|-0-------------0---------------0------------0-----0-------------|
B|-0-------------0---------------0------------0-----0-------------|
G|-9-------------8---------------7------------6-----4-------------|
D|-9-------------9---------------7------------7-----4-------------|
A|-7-------------7---------------5------------7-----2-------------|
E|-X-------------X---------------X------------5-----X-------------|

THE SECOND TIME: @(3:40)

PLAY:

  (DUUDUU)   D     (DUUDUU)  D      (DUUDUUDUDU) (DU)  D
e|-0---------0------0--------0------0-------------0----0---------|
B|-0---------0------0--------0------0-------------0----0---------|
G|-9---------9/11---8--------8/10---7-------------6----2---------|
D|-9---------9/11---9--------9/11---7-------------7----2---------|
A|-7---------7/9----7--------7/9----5-------------7----0---------|
E|-X---------X------X--------X------X-------------5----X---------|



THE SOLO BIT @(3:54)

PLAY:
   (DUU)  D     U   D      D      U   D     (UUD)(DUU)(DUUD) (DU)
e|-0------0-----0---0------0------0---0------0---0-----0------0---|
B|-0------0-----0---0------0------0---0------0---0-----0------0---|
G|-9------9/11--11--11/13--13/14--14--14/13--13--7-----6------6---|
D|-9------9/11--11--11/13--13/14--14--14/13--13--7-----7------7---|
A|-7------7/9---9---9/11---11/12--12--12/11--11--5-----5------7---|
E|-X------X-----X---X------X------X---X------X---X-----X------5---|

   D
e|-0---------|
B|-0---------|
G|-0---------|
D|-9---------|
A|-9---------|
E|-7---------|

THEN GO BACK TO NORMAL (first section) WHEN SHE SINGS : "I'm going crazy..."


HOPE THIS WAS HELPFUL, COMMENT?

HAVE YOURSELF A SMASHING DAY :)

*************************************************************





Comments


Popular Jessie J tabs & chords
Domino Bass Tabs
Big White Room Chords
Domino 5 Chords
Its My Party Chords
Magnetic 1 Chords
Mamma Knows Best Chords
Mamma Knows Best Tabs
Price Tag Tabs
Do It Like A Dude Ukulele
Who You Are Ukulele


Song lyrics



↑ Back to top | Tablatures and chords are parodies/interpretations of the original songs. You may use it for private study, scholarship, research or language learning purposes only
© 2014 AZChords.com Contact us | Privacy policy | DMCA | Add/correct tabs | Request tabs | Top 50 tabs