» » »

Jessie J, Domino Bass tabs (ver.1)

Artists:  A B C D E F G H I J K L M N O P Q R S T U V W X Y Z # 

Domino Bass tabs (ver.1)

Jessie J Tabs
 Rating:
4.2/5 (5 votes)
Domino lessons Tabs too difficult? Try these video lessons and learn fast
1
                Jessie J - Domino

In heres everything you'll need to play this song + a link to a video with this tab 
being played at the end :)


The 'P's Under the tabs are to indicate to "pop" that note


Verse

G|-------------------------------|
D|-------------------------------|
A|-------------------------------|
E|---3----3----3--3----3--3--3---|


G|----------------------------------|
D|-------------------------------5--|
A|----------------------------------|
E|---3----3----3--3----3--3--3-3----|

                                 P


We can do this all night

G|----------------------------------------7---|
D|----------7----7---7------------------------|
A|-----------------------7--7--5-5--5-5-5-----|
E|-8--8---5----5---5--------------------------|

                 P   P                    P


CHORUS

G|------------------------------------7----7---7-----|
D|---10----------7----7---7--------------------------|
A|----------------------------7--7--5----5---5-------|
E|-8----8--8---5----5---5----------------------------|

                      P   P                P   P

INTERLUDE

G|----------------------------------------7---|
D|----------7----7---7------------------------|
A|-----------------------7--7--5-5--5-5-5-----|
E|-8--8---5----5---5--------------------------|


G|------------------------------------7---7---|
D|----------7----7---7------------------------|
A|-----------------------7--7--5-5--5---5-----|
E|-8--8---5----5---5--------------------------|


LAST CHORUS

G|-----------------------------5---------7----7---7----|
D|---10----------7----7---7----------------------------|
A|---------------------------7---7--7--5----5---5------|
E|-8----8--8---5----5---5------------------------------|

                      P   P                   P   P


Tab can be found being played here...






Have fun with it :D
            
Submit corrections

comments powered by Disqus
↑ Back to top | Jessie J Bass for Domino. Lyrics for acoustic guitar and electric guitar. 1 Tablatures and chords are parodies/interpretations of the original songs. You may use it for private study, scholarship, research or language learning purposes only