» » »

So Real Tabs (ver.4)

Artists:  A B C D E F G H I J K L M N O P Q R S T U V W X Y Z # 

So Real Tabs (ver.4)

Jeff Buckley
Rating:
0/5 (0 votes)

Tabs too difficult? Try these video lessons and learn fast.
                e|---------------------------------------------|----------------------------------------|
B|----------13---13----------------------------|----------------------------------------|
G|----/14---14---14----------------------------|-----------15---15---15---15---15---15--|
D|------0----0----0---15---15---14---12---12---|----------------------------------------|
A|---------------------0----0---------0----0---|-13---13---13---13---13---13---13---13--|
E|---------------------------------------------|----------------------------------------|

|-------------------------------------------|-----------------------------------------------||
|-------------------------------------------|-----------------------------------------------||
|------------------12------------------12---|-----------------------------------------------||
|------------------12------------------12---|-----------------------------------------------||
|---12---12---12---12---12---12---12---12---|-12---12---------------------------------------||
|-------------------------------------------|-----------13---13---12h13--13--13--12--13--13\||

|-------------------------------------|---------------------------------|
|-------------------------------------|---------------------------------|
|----------------9--------------9--7--|-9---7--7------7---7-----7--9\---|
|----------------8-------8---8--------|-9-------------9---9--9----------|
|-------------------------------------|---------------------------------|
|----0---0---0-------0---0---0--------|-0---------0---0---0-------------|

|------------------------------3--|-3--8-8-8-8----7-----7----|-------------------------|
|-------12-12-12-----7-7-7-----3--|-3--8-8-8-8----7--7--7----|-------------------------|
|-------11-11-11-----6-6-6-----0--|-0-------------0--0--0----|---------9-7-9-9-7-9-----|
|-------12-12-12-----7-7-7--------|--------------------------|-8-----------8--------8--|
|---------------------------------|--------------------------|-------------------------|
|---10------------5---------3-----|------------7-------------|-0--0--0-----------------|

|------------------------------|---------------------------3--|-3--8-8-8-8-----7-----7---|
|------------------------------|----12-12-12-----7-7-7-----3--|-3--8-8-8-8-----7--7--7---|
|-----------9----9----9-11-9\--|----11-11-11-----6-6-6-----0--|-0--------------0--0--0---|
|---9--9--9---12---12----------|----12-12-12-----7-7-7--------|--------------------------|
|------------------------------|------------------------------|--------------------------|
|---0-----0--------------------|-10-----------5---------3-----|-------------7------------|

|-----------------------------------|----------------------7-------7--7---|
|-------------------------------8---|--5-------------------5-------5--5---|
|-----------7---7---7-------9-------|--5-------5---5---5------------------|
|-----------7---7---7---7-----------|--4-------4---4---4------------------|
|-----------------------------------|-------------------------------------|
|---8---8---8---8---8---8-----------|--5----------------------------------|

|-----------------------------------|---------------------/8-------7--5---|
|-------------------------------8---|--5----------------------------------|
|-----------7---7---7-------9-------|--5-------5---5---5------------------|
|-----------7---7---7---7-----------|--4-------4---4---4------------------|
|-----------------------------------|-------------------------------------|
|---8---8---8---8---8---8-----------|--5----------------------------------|

|-----------------------------------|----------------------7-------7--7---|
|-------------------------------8---|--5-------------------5-------5--5---|
|-----------7---7---7-------9-------|--5-------5---5---5------------------|
|-----------7---7---7---7-----------|--4-------4---4---4------------------|
|-----------------------------------|-------------------------------------|
|---8---8---8---8---8---8-----------|--5----------------------------------|

|-----------------------------------|----------------------------------|
|--11--11--11--11--11--11--11--11---|-12--12--12--12--12--12--12--12---|
|---9---9---9---9---9---9---9---9---|--9---9---9---9---9---9---9---9---|
|---8---8---8---8---8---8---8---8---|--9---9---9---9---9---9---9---9---|
|-----------------------------------|----------------------------------|
|---0-------------------------------|--0-------------------------------|

|---------------------------------3---|-3---8-8-8-8------7-------7----|
|------12-12-12-------7-7-7-------3---|-3---8-8-8-8------7---7---7----|
|------11-11-11-------6-6-6-------0---|-0----------------0---0---0----|
|------12-12-12-------7-7-7-----------|-------------------------------|
|-------------------------------------|-------------------------------|
|--10-------------5-----------3-------|--------------7----------------|
            
Tabs too difficult? Try these video lessons and learn fast.




comments powered by Disqus
↑ Back to top | Tablatures and chords are parodies/interpretations of the original songs. You may use it for private study, scholarship, research or language learning purposes only