>
 >
Forget Her

Forget Her Guitar Tabs

Jeff Buckley - Forget Her chords, tabs, tablatures, lyrics

Guitar lessons | Add/correct | Request | Top 50 tabs Artists:  A B C D E F G H I J K L M N O P Q R S T U V W X Y Z 0-9

Forget Her Guitar Tabs – Jeff Buckley

CD, Sheet music, Poster

Do you like Forget Her? Share with your friends now
TabsTabs v2Tabs v3
#------------------------------------------------------------------------------##

                                   FORGET HER
                           As recorded by Jeff Buckley
                 (From the 1994 Album GRACE [EXPANDED EDITION])


Gtr I (E A D G B E)
Gtr II (E A D G B E)

   Intro
   4/4
    Gtr I
    E E E E E E E E E E E E   E E E E E E E E E E E E
||--------------------------|--------------------------||
||o-------------------------|-------------------------o||
||------2-----2-----0-------|-----2-----2-----0--------||
||----2-----2-----0-------3-|---2-----2-----0-------3--||
||o-0-----0-------------3---|-0-----0-------------3---o||
||--------------0-----3-----|-------------0-----3------||


   1st and 2nd Verses
    E E E E E E E E E E E E   E E E E E E E E E E E E
||--------0-----------0-----|-------0-----------0----|
||o---------1-----------1---|---------1-----------1--|
||------2-----2-----2-----2-|-----2-----2-----2-----2|
||----2-----------2---------|---2-----------2--------|
||o-0-----------0-----------|-0-----------0----------|
||--------------------------|------------------------|


  E E E E E E E E E E E E   E E E E E E E E E E E E
|-------------------------|--------------------------||
|-------0-----------0-----|-------0-----------0-----o||
|-------0-----------0-----|-------0-----------0------||
|-----2---2-------2---2---|-----2---2-------2---2----||
|---2-------2---2-------2-|---2-------2---2-------2-o||
|-0-----------0-----------|-0-----------0------------||


 Fill 1
                    ~
  E E E E Q E E E   E
|---------3-------|------|
|---1-3s5---5s3-1-|------|
|-2---------------|-4----|
|-----------------|------|
|-----------------|------|
|-----------------|------|


 Chorus
  Q  Q  E E Q  Q  E E   Q  Q  E E Q  E E E E
|---------------------|----------------------|
|-8--6--6-5-5--5--5-6-|-8--6--6-5-5--5-5-----|
|-5--5--5-5-7--5--7-5-|-5--5--5-5-5--7---7---|
|-7--7--7-7-7--7--7-7-|-7--7--7-7-7--7-----7-|
|---------------------|----------------------|
|---------------------|----------------------|


    E E E E E E   E E E E E E
||--------------|--------------||
||o-7-7-7-7-7-7-|-7-7-7-7-7-7-o||
||--4-4-4-4-4-4-|-4-4-4-4-4-4--||
||--5-5-5-5-5-5-|-5-5-5-5-5-5--||
||o-7-7-7-7-7-7-|-7-7-7-7-7-7-o||
||--------------|--------------||


  Q  Q  E E Q  Q  E E   Q  Q  E E Q  E Q  E
|---------------------|---------------------|
|-8--6--6-5-5--5--5-6-|-8--6--6-5-5--5-5--5-|
|-5--5--5-5-7--5--7-5-|-5--5--5-5-5--7-7--7-|
|-7--7--7-7-7--7--7-7-|-7--7--7-7-7--7-7--7-|
|---------------------|---------------------|
|---------------------|---------------------|


   E  E  E  E  E  E    E  E  E  E  E  E
|-------------------|-------------------|
|--7--7--7--7--7--7-|--7--7--7--7--7--7-|
|--7--7--7--7--7--7-|--7--7--7--7--7--7-|
|--9--9--9--9--9--9-|--9--9--9--9--9--9-|
|-10-10-10-10-10-10-|-10-10-10-10-10-10-|
|-------------------|-------------------|


   E  E  E  E  E  E    W
|-------------------|-------|
|--7--7--7--7--7--7-|--7----|
|--7--7--7--7--7--7-|--7----|
|--9--9--9--9--9--9-|--9----|
|-10-10-10-10-10-10-|-10----|
|--7--7--7--7--7--7-|--7----|


 Fill 2
  E E E
|-------|
|-------|
|-------|
|-------|
|-----0-|
|-0-3---|


 Interlude
    Gtr I
  W       W           H.  E   E E E  E E E E E
|-------------------|-5----------------3-------|
|-------------------|-5---------1-3s=5---5s3-1-|
|-------------------|-2-------2----------------|
|-------------------|-2------------------------|
|-0-----------------|-0------------------------|
|-------------------|--------------------------|
|
|   Gtr II
| H   E   H..   E     H     E     H..    E
|-----5---------5---|-------5------------5-----|
|-----5---------5---|-------5------------5-----|
|-----2---------2---|-------2------------2-----|
|-----2---------2---|-------2------------2-----|
|-----0---------0---|-------0------------0-----|
|-------------------|--------------------------|


  ~
  W       W            W      H.         E E
|-------------------|-14---------------------|
|-------------------|-15-----------------3-5-|
|-4-----------------|-16---------------------|
|-------------------|-17---------------------|
|-------------------|------------------------|
|-------------------|------------------------|
|
| H   E   H..   E      H   E     H..   E
|-----0---------0---|------0-----------0-----|
|-----0---------0---|------0-----------0-----|
|-----0---------0---|------0-----------0-----|
|-----2---------2---|------2-----------2-----|
|-------------------|------------------------|
|-------------------|------------------------|


                              ~    ~
  Q    Q   E E E   H      E   Q  E Q  E E  E E Q  E
|---------------------------|-----------------------|
|-5b6r=5---5-3-5---------/8-|-8---------6s=8-8-8----|
|------------------5--------|----5-5--5-5s=7---7--5-|
|---------------------------|-----------------------|
|---------------------------|-----------------------|
|---------------------------|-----------------------|
|
| H      E     H..    E       H    E    H..    E
|--------5------------5-----|------5-----------5----|
|--------5------------5-----|------5-----------5----|
|--------2------------2-----|------2-----------2----|
|--------2------------2-----|------2-----------2----|
|--------0------------0-----|------0-----------0----|
|---------------------------|-----------------------|


  S S E E. S W                 W         E    S S
|------------------------|-------------------------|
|------------------------|---------------8----8-8--|
|-5s7s5------------------|---------------7b9==7-7r-|
|-------7--5s7-----------|-------------------------|
|------------------------|-------------------------|
|------------------------|-------------------------|
|
| H     E      H..   E     H   E   H..   E
|-------0------------0---|-----0---------0---------|
|-------0------------0---|-----0---------0---------|
|-------0------------0---|-----0---------0---------|
|-------2------------2---|-----2---------2---------|
|------------------------|-------------------------|
|------------------------|-------------------------|


 Guitar Solo
  E     S S S S   E     S S S S    E     S S S S   E     S S   S S
|--------------------------------|---------------------------------|
|-8-----8-8-8-8---8-----8-8-8-8--|-8-----8-8-8-8---8-----8-8-------|
|-7b9===7-7-7-7r--7b9===7-7-7-7r-|-7b9===7-7-7-7r--7b9===7-7r--7p5-|
|--------------------------------|---------------------------------|
|--------------------------------|---------------------------------|
|--------------------------------|---------------------------------|


  ~                                         ~
  Q   E  Q      E Q  E  Q      E    Q     E H     Q    S   S S Q
|--------8------8-8--8--8------8--|-8-----8-8--------------------|
|--------8b10===8-8--8r-8b10===8r-|-8pb10r8-8--------------------|
|-7---5---------------------------|---------------7b9--7b9r7p5---|
|---------------------------------|----------------------------5-|
|---------------------------------|------------------------------|
|---------------------------------|------------------------------|


                          ~~
  E   Q      Q      S S   Q.    Q    E
|-----------------------|--------------|
|-----------------------|--------------|
|-----------------------|--------------|
|-----------------------|--------------|
|-5b7-5b7----5b7----5p3-|-5-----0----3-|
|-----------------------|--------------|


   Outro
    E E E E E E E E E E E E   E E E E E E E E E E E E
||--------------------------|-------------------------||
||o-------------------------|------------------------o||
||------2-----2-----0-------|-----2-----2-----0-------||
||----2-----2-----0-------3-|---2-----2-----0-------3-||
||o-0-----0-------------3---|-0-----0-------------3--o||
||--------------0-----3-----|-------------0-----3-----||


  E E E E E E E E E E E E   E E E E E E E E E E E E
|-------------------------|-------------------------|
|-------------------------|-------------------------|
|-----2-----2-----0-------|-----2-----2-----0-------|
|---2-----2-----0-------3-|---2-----2-----0-------3-|
|-0-----0-------------3---|-0-----0-------------3---|
|-------------0-----3-----|-------------0-----3-----|


  E E E E E E E E E E E E   E E E E E E E E E H
|-------------------------|------------------------|
|-------------------------|------------------------|
|-----2-----2-----0-------|------------------------|
|---2-----2-----0-------3-|-----2-----2-----2------|
|-0-----0-------------3---|---2-----2-----2--------|
|-------------0-----3-----|-4-----4-----0-----0----|


Duration Legend
---------------
W - whole; H - half; Q - quarter; E - 8th; S - 16th; T - 32nd; X - 64th; a - acciaccatura
+ - note tied to previous; . - note dotted; .. - note double dotted
Uncapitalized letters represent notes that are staccato (1/2 duration)
Irregular groupings are notated above the duration line
Duration letters will always appear directly above the note/fret number it represents the
duration for.  Duration letters with no fret number below them represent rests.  Multi-
bar rests are notated in the form Wxn, where n is the number of bars to rest for.  Low
melody durations appear below the staff

Tablature Legend
----------------
 h   - hammer-on
 p   - pull-off
 b   - bend
 pb  - pre-bend
 r   - bend release (if no number after the r, then release immediately)
 /\  - slide into or out of (from/to "nowhere")
 s   - legato slide
 S   - shift slide
  - natural harmonic
[n]  - artificial harmonic
n(n) - tapped harmonic
 ~   - vibrato
 tr  - trill
 T   - tap
 TP  - trem. picking
 PM  - palm muting
\n/  - tremolo bar dip; n = amount to dip
 \n  - tremolo bar down
 n/  - tremolo bar up
/n\  - tremolo bar inverted dip
 =   - hold bend; also acts as connecting device for hammers/pulls
 <>  - volume swell (louder/softer)
 x   - on rhythm slash represents muted slash
 o   - on rhythm slash represents single note slash

Misc Legend
-----------
 |  - bar
||  - double bar
||o - repeat start
o|| - repeat end
*|  - double bar (ending)
 :  - bar (freetime)
 $  - Segno
 &  - Coda
Tempo markers -  = BPM(8/16=s8/s16), where s8 = swing 8ths, s16 = swing 16ths


***************************************************************************************
***************************************************************************************





Comments


Popular Jeff Buckley tabs & chords
All Flowers In Time Chords
All Flowes In Time Bend Towards The Sun Chords
Dream Brother Chords
Eternal Life Chords
Just Like A Woman Chords
Grace Tabs
Last Goodbye 1 Tabs
Last Goodbye 3 Tabs
Thats All I Ask Tabs
Lover You Shouldve Come Over Ukulele


Song lyrics



↑ Back to top | Tablatures and chords are parodies/interpretations of the original songs. You may use it for private study, scholarship, research or language learning purposes only
© 2014 AZChords.com Contact us | Privacy policy | DMCA | Add/correct tabs | Request tabs | Top 50 tabs