» » »

Jeff Buckley, So Real Tabs (ver.1)

Artists:  A B C D E F G H I J K L M N O P Q R S T U V W X Y Z # 

So Real Tabs (ver.1)

Jeff Buckley Tabs
 Rating:
4/5 (4 votes)
So Real lessons Tabs too difficult? Try these video lessons and learn fast
                I arranged the lead guitar, though Jeff Buckley and was normally accompanied by 
Michael Tighe.  I transcribed this song from the Jeff Buckley DVD 'Live In Chicago'.
This is all my own work, so ask before you copy it to your site please!



INTRO:
------

|----------------------------------|----------------------------------|
|----------------------------------|----------------------------------|
|---11s14--17--17------------------|--14--14--15--15--15--15--15--15--|
|---0------0---0---15--15--14--12--|--12------------------------------|
|----------------------0---0---0---|--0---13--13--13--13--13--13--13--|
|----------------------------------|----------------------------------|

|----------------------------------|-------------------------------------|
|----------------------------------|----------------------------------10-|
|--15----------12--12--12--12--14--|--14--14------------------7-------7--|
|--------------12--12--12--12--12--|--12--12---------------0--7-------7--|
|--12--12--12--12--12--12--12--12--|--12--12--8--8--8-7h8--0--7h8--8-----|
|----------------------------------|-------------------------------------|



VERSE 1:
--------

|---6-6-6-6-6-6-6-|-7-7-7-7-7-7-7-7-|---7-7-7---------|---3---8-8-8-8---|
|---5-5-5-5-5-5-5-|-5-5-5-5-5-5-5-5-|---7-7-7---7-7-7-|---3---8-8-8-8---|
|---0-0-0-0-0-0-0-|-0-0-0-0-0-0-0-0-|---4-4-4---6-6-6-|---0---0-0-0-0---| Play
|-----------------|-----------------|-0---------4-4-4-|-----------------|  x2
|-----------------|-----------------|---------0-------|-----------------|
|-----------------|-----------------|-----------------|-3---8---------7-|

|-7---------------|
|-7---------------|
|-0---------------|
|-----------------|
|-----------------|
|-----------------|



CHORUS 1:
---------

|--0--0--0--0--0--0--0--0--0--0--|--0--0--0--0--0--0--0--0--0--0--|
|--10-10-10-10-10-10-10-10-10-10-|--5--5--5--5--5--5--5--5--5--5--|
|--9--9--9--9--9--9--9--9--9--9--|--5--5--5--5--5--5--5--5--5--5--| Play
|--7--7--7--7--7--7--7--7--7--7--|--4--4--4--4--4--4--4--4--4--4--|  x3
|--------------------------------|--0--0--0--0--0--0--0--0--0--0--|
|--8--8--8--8--8--8--8--8--8--8--|--------------------------------|

|---6-6-6-6-6-6-6-|-7-7-7-7-7-7-7-7-|---7-7-7---------|---3---8-8-8-8---|
|---5-5-5-5-5-5-5-|-5-5-5-5-5-5-5-5-|---7-7-7---7-7-7-|---3---8-8-8-8---|
|-----------------|-0-0-0-0-0-0-0-0-|---4-4-4---6-6-6-|---0---0-0-0-0---|
|-----------------|-----------------|-0---------4-4-4-|-----------------|
|-----------------|-----------------|---------0-------|-----------------|
|-0---------------|-----------------|-----------------|-3---8---------7-|



VERSE 2:
--------

|---6-6-6-6-6-6-6-|-7-7-7-7-7-7-7-7-|---7-7-7---------|---3---8-8-8-8---|
|---5-5-5-5-5-5-5-|-5-5-5-5-5-5-5-5-|---7-7-7---7-7-7-|---3---8-8-8-8---|
|---0-0-0-0-0-0-0-|-0-0-0-0-0-0-0-0-|---4-4-4---6-6-6-|---0---0-0-0-0---| Play
|-----------------|-----------------|-0---------4-4-4-|-----------------|  x4
|-----------------|-----------------|---------0-------|-----------------|
|-----------------|-----------------|-----------------|-3---8---------7-|

|-7---------------|
|-7---------------|
|-0---------------|
|-----------------|
|-----------------|
|-----------------|



CHORUS 2:
---------

|--0--0--0--0--0--0--0--0--0--0--|--0--0--0--0--0--0--0--0--0--0--|
|--10-10-10-10-10-10-10-10-10-10-|--5--5--5--5--5--5--5--5--5--5--|
|--9--9--9--9--9--9--9--9--9--9--|--5--5--5--5--5--5--5--5--5--5--| Play
|--7--7--7--7--7--7--7--7--7--7--|--4--4--4--4--4--4--4--4--4--4--|  x4
|--------------------------------|--0--0--0--0--0--0--0--0--0--0--|
|--8--8--8--8--8--8--8--8--8--8--|--------------------------------|



INTERLUDE: - Distortion.
----------

|-----------------|-----------------|-----------------|-----------------|
|-----------------|-----------------|-----------------|-----------------|
|-7-7-7-7-7-7-7-7-|-----------------|-----------------|-----------------|
|-0-0-0-0-0-0-0-0-|-----5b----------|-4b-4b-4b5s7---5-|-5b------5b------|
|-----------------|-----------------|-----------------|-----------------|
|-----------------|-----------------|-----------------|-----------------|

|-----------------|-----------------|-----------------|-----------------|
|-----------------|-----------------|-----------------|-----------------|
|-----------------|-----------------|-----------------|-----------------|
|-5b--5b--5b--6b--|-6b--6~~~~~~~~~--|-6s5-----5s------|-----------------|
|-----------------|-----------------|-----------------|-----------------|
|-----------------|-----------------|-----------------|-----------------|



VERSE 3:
--------

|---6-6-6-6-6-6-6-|-7-7-7-7-7-7-7-7-|---7-7-7---------|---3---8-8-8-8---|
|---5-5-5-5-5-5-5-|-5-5-5-5-5-5-5-5-|---7-7-7---7-7-7-|---3---8-8-8-8---|
|---0-0-0-0-0-0-0-|-0-0-0-0-0-0-0-0-|---4-4-4---6-6-6-|---0---0-0-0-0---| Play
|-----------------|-----------------|-0---------4-4-4-|-----------------|  x2
|-----------------|-----------------|---------0-------|-----------------|
|-----------------|-----------------|-----------------|-3---8---------7-|

|-7-7-7-----------|
|-7-7-7-----------|
|-0-0-0-----------|
|-----------------|
|-----------------|
|-----------------|



CHORUS:
-------

|--0--0--0--0--0--0--0--0--0--0--|--0--0--0--0--0--0--0--0--0--0--|
|--10-10-10-10-10-10-10-10-10-10-|--5--5--5--5--5--5--5--5--5--5--|
|--9--9--9--9--9--9--9--9--9--9--|--5--5--5--5--5--5--5--5--5--5--| Play
|--7--7--7--7--7--7--7--7--7--7--|--4--4--4--4--4--4--4--4--4--4--|  x3
|--------------------------------|--0--0--0--0--0--0--0--0--0--0--|
|--8--8--8--8--8--8--8--8--8--8--|--------------------------------|



OUTRO:
------

|-------0-0-0-0-0-0-|---2-2-2-----------3-3-2-2-2-|
|-------3-3-3-3-3-3-|---2-2-2-3-3-3-5-3-3-3-3-3-3-|
|-------2-2-2-2-2-2-|---2-2-2-2-2-2-2-2-2-2-2-2-2-|
|-------0-0-0-0-0-0-|---4-4-4-4-4-4-4-4-----------|
|-2-4---------------|-2-----2-2-2-2---------------|
|-----3-------------|-----------------------------|

|-0-0---0-0-0---0-0-0-0-0-0-|-0-0---0-0-0---0-0-0-0-0-0-|
|-3-3---3-3-3---3-3-5-5-5-5-|-3-3---3-3-3---3-3-5-5-5-5-|
|-3-3---3-3-3---3-3-5-5-5-5-|-3-3---3-3-3---3-3-5-5-5-5-|
|-0-0-0-0-0-0-0-0-0-0-0-0-0-|-0-0-0-0-0-0-0-0-0-0-0-0-0-|
|-------------------0-------|-------------------0-------|
|-3---3-3-----3-------------|-3---3-3-----3-------------|

|-------0-0-0-0-0-0-|---2-2-2-----------3-3-2-2-2-|
|-------3-3-3-3-3-3-|---2-2-2-3-3-3-5-3-3-3-3-3-3-|
|-------2-2-2-2-2-2-|---2-2-2-2-2-2-2-2-2-2-2-2-2-|
|-------0-0-0-0-0-0-|---4-4-4-4-4-4-4-4-----------|
|-2-4---------------|-2-----2-2-2-2---------------|
|-----3-------------|-----------------------------|

|-0-0-0-0-0-0-0-0-0-0-0-0-|
|-3-3-3-3-3-3-3-3-3-3-3-0-|
|-3-3-3-3-3-3-3-3-3-3-3-0-|
|-0-0-0-0-0-0-0-0-0-0-0-0-|
|-------------------------|
|-3-----3-----3-----3-----|

|-------0-0-0-0-0-0-|---2-2-2-----------3-3-2-2-2-|
|-------3-3-3-3-3-3-|---2-2-2-3-3-3-5-3-3-3-3-3-3-|
|-------2-2-2-2-2-2-|---2-2-2-2-2-2-2-2-2-2-2-2-2-|
|-------0-0-0-0-0-0-|---4-4-4-4-4-4-4-4-----------|
|-2-4---------------|-2-----2-2-2-2---------------|
|-----3-------------|-----------------------------|

|-0-0---0-0-0---0-0-0-0-0-0-|-0-0---0-0-0---0-0-0-0-0-0-|
|-3-3---3-3-3---3-3-5-5-5-5-|-3-3---3-3-3---3-3-5-5-5-5-|
|-3-3---3-3-3---3-3-5-5-5-5-|-3-3---3-3-3---3-3-5-5-5-5-|
|-0-0-0-0-0-0-0-0-0-0-0-0-0-|-0-0-0-0-0-0-0-0-0-0-0-0-0-|
|-------------------0-------|-------------------0-------|
|-3---3-3-----3-------------|-3---3-3-----3-------------|

|-------0-0-0-0-0-0-|---2-2-2-----------3-3-2-2-2-|
|-------3-3-3-3-3-3-|---2-2-2-3-3-3-5-3-3-3-3-3-3-|
|-------2-2-2-2-2-2-|---2-2-2-2-2-2-2-2-2-2-2-2-2-|
|-------0-0-0-0-0-0-|---4-4-4-4-4-4-4-4-----------|
|-2-4---------------|-2-----2-2-2-2---------------|
|-----3-------------|-----------------------------|

|-0-0-0-0-0-0-0-0-0-0-0-0-|---2-2-2-----------3-3-2-2-2-|
|-3-3-3-3-3-3-3-3-3-3-3-0-|---2-2-2-3-3-3-5-3-3-3-3-3-3-|
|-3-3-3-3-3-3-3-3-3-3-3-0-|---2-2-2-2-2-2-2-2-2-2-2-2-2-|
|-0-0-0-0-0-0-0-0-0-0-0-0-|---4-4-4-4-4-4-4-4-----------|
|-------------------------|-2-----2-2-2-2---------------|
|-3-----3-----3-----3-----|-----------------------------|

|-0-0-0-0-0-0-0-0-0-0-0-0-|-0-0---2-----------------|
|-3-3-3-3-3-3-3-3-3-3-3-0-|-0-0---3-----------------|
|-3-3-3-3-3-3-3-3-3-3-3-0-|-0-0---2-----------------|
|-0-0-0-0-0-0-0-0-0-0-0-0-|-----0-0-----------------|
|-------------------------|-2-4---0-----------------|
|-3-----3-----3-----3-----|-----3-------------------|



---------------------------------------------
---------------------------------------------
            
Submit corrections

comments powered by Disqus
↑ Back to top | Jeff Buckley Tabs for So Real. Lyrics for acoustic guitar and electric guitar. Tablatures and chords are parodies/interpretations of the original songs. You may use it for private study, scholarship, research or language learning purposes only