» » »

Jeff Buckley, So Real Tabs (ver.3)

Artists:  A B C D E F G H I J K L M N O P Q R S T U V W X Y Z # 

So Real Tabs (ver.3)

Jeff Buckley Tabs
Rating:
0/5 (0 votes)
So Real lessons Tabs too difficult? Try these video lessons and learn fast
                Notes:	This is a very accurate version of the song, the solo
	sounds like it is played on a lawnmower, so I am not
	gonna put that in.

Intro:

|----------------------------------------------------------|
|----------------------------------------------------------|
|--11-/-14-17-17-------------14-14-15-15-15-15-15-15-------|
|--0-------0--0--15-15-14-12-12----------------------------|
|-------------------0--0--0--0--13-13-13-13-13-13-12-12-12-|
|----------------------------------------------------------|

|----------------------------------------------|
|-------------------------------------------10-|
|-12-12-12-12-14-14-14----------------7-----7--|
|-12-12-12-12-12-12-12----------------7--------|
|-12-12-12-12-12-12-12-8--8-8-7h8-8-0-7h8-8----|
|----------------------------------------------|

Verse:

|-6-6-6-6-6-6-6-6-|-7-7-7-7-7-7-7-7-|
|-5-5-5-5-5-5-5-5-|-5-5-5-5-5-5-5-5-|
|-0-0-0-0-0-0-0-0-|-0-0-0-0-0-0-0-0-|
|-----------------|-----------------|
|-----------------|-----------------|
|-----------------|-----------------|

|----4-4-4-------7-7-7-|--3--/--8-8-8-8---7-7-7-7-|
|----7-4-7-------7-7-7-|--3--/--8-8-8-8---7-7-7-7-|
|----7-7-7-------6-6-6-|--0--/--0-0-0-0---0-0-0-0-|
|-0--------------4-4-4-|--------------------------|
|-------------0--------|--------------------------|
|----------------------|--------------------------|

Repeat this again, then to the chorus:

                                     (same rhythm as last bar)
|-0---0---0---0---0--0--0---0---0--|-0------
|-10--10--10--10--10-10-10--10--10-|-5------
|-9---9---9---9---9--9--9---9---9--|-5------
|-7---7---7---7---7--7--7---7---7--|-4------
|-x---x---x---x---x--x--x---x---x--|-0------
|-8---8---8---8---8--8--8---8---8--|--------   (x3)

Play the verse a few times more then another chorus. 
Then comes the solo, lets skip that.
After that play the verse and chorus again, the the outro.

Outro: (don't take rhythm literally)

|-----------0---0-0-0-0--0-|---2-2-------2-2-2-2-2-2-2-2-2-2-2-|
|-----------3---3-3-3-3--3-|---2-2-2-2-3-3-3-3-3-3-3-3-3-3-2-2-|
|-----------2---2-2-2-2--2-|---2-2-2-2-2-2-2-2-2-2-2-2-2-2-2-2-|
|-----------0---0-0-0-0--0-|---4-4-4-4-4-4-4-4-4-4-4-4---------|
|-2--4---------------------|-2-----2-2-------------------------|
|-------3------------------|-----------------------------------|

				  x 5
|-0-0-0-0-0-0-0--0--0-/-0--0-0-0--|-|-0--0-------2-|
|-3-3-3-3-3-3-3--3--3-/-5--5-5-5--|-|-0--0-------3-|
|-3-3-3-3-3-3-3--3--3-/-5--5-5-5--|-|-0--0-------2-|
|-0-0-0-0-0-0-0--0--0---0--0-0-0--|-|-------0----0-|
|---------------------------------|-|-2--4---------|
|-3-3-3-3-3-3-3--3--3-------------|-|-------3------|
            
Submit corrections

comments powered by Disqus
↑ Back to top | Jeff Buckley Tabs for So Real. Lyrics for acoustic guitar and electric guitar. Tablatures and chords are parodies/interpretations of the original songs. You may use it for private study, scholarship, research or language learning purposes only