» » »

Jeff Buckley, Eternal Life Tabs (ver.2)

Artists:  A B C D E F G H I J K L M N O P Q R S T U V W X Y Z # 

Eternal Life Tabs (ver.2)

Jeff Buckley Tabs
 Rating:
4/5 (7 votes)
Eternal Life lessons Tabs too difficult? Try these video lessons and learn fast
1
                

There's a couple of little things you'll have to sort out yourself, I've just
written "verse" in where the verses fit.  There are also a lot of second guitar
parts I've not included in the tab although I may update it at some point to
include them, but for now, enjoy.

Standard tuning

------------------------------|
------------------------------|
------------------------------|
------------------------------|
-5-5-5h7^-5h7^-5h7^-5h7^-5-5--|
-0-0-0----0----0----0---------|
 (bends are quater tones)                                        

-0---------0--------|-------------------------
-0---------0--------|-------------------------
-4---------0--------|-5^----------------------
-2---------4--------|-------------------------
-2---------5--------|-------------------------
-----------0--------|-------------------------
 heavily distorted    guitar 2 (over the top)   

---------------------------1---------------------------------|
---------------------------1---------------------------------|
-----0-0-0-0-0-------------2----------0---0-----------0---0--|
---2---2-2-2-2-0-0-0-0-0-0-3--------0---------------0--------|
-3-----3-3-3-3-2-2-2-2-2-2-3------4---------------4----------|
---------------3-3-3-3-3-3-----/5-------5---5-5-5-------5----|
 Verse                                                    x4     

----------------------------------------------------------------------------
------------------------------------------------------3---------------------
------------------------------------------------------0---------------------
------------------------------------------------------0---------------------
-2------------4------------5-------------7------------2---------------------
-3------------3------------3-------------3------------0---------------------
 And as your fantasies are broken in two,     did you really think this 

-------------------------------------------------------2--------------------
----3----------------3-------------------3-------------3--------------------
----0----------------0-------------------0-------------2--------------------
----4----------------0-------------------4-------------0--------------------
----0----------------2-------------------0----------------------------------
---------------------0------------------------------------------------------
 bloodied road would pave the way for you?  You better turn around and blow 

---------------0-------------------------------------------------------------
---------------2---------------0-0-0-0-0-0-0-0-0-0-0-0-0-0-0-0-0-0-0-0-0-0-0-
---------------2---------------7-7-7-7-9-9-9-9-9-9-9-9-9-9-9-9-7-7-7-7-9-9-9-
---------------2---------------x-x-x-x-x-x-x-x-x-x-x-x-x-x-x-x-x-x-x-x-x-x-x-
---------------0---------------5-5-5-5-7-7-7-7-7-7-7-7-7-7-7-7-5-5-5-5-7-7-7-
-----------------------------------------------------------------------------
 your kiss, hello to life eternal                          

-------------------|-------|-------------------------------------------------
-0-0-0-0-0-0-0-0-0-|-------|-------------------------------------------------
-9-9-9-9-9-9-9-9-9-|-------|-------------------------------------------------
-x-x-x-x-x-x-x-x-x-|-------|-------------------------------------------------
-7-7-7-7-7-7-7-7-7-|-------|--2------------4------------5------------7-------
-------------------|-------|--3------------3------------3------------3-------
                     verse    And as your fantasies are broken in two,   did 

--------------------------------------------------------------------------
-----3--------------------3----------------3-------------------3----------
-----0--------------------0----------------0-------------------0----------
-----0--------------------4----------------0-------------------4----------
-----2--------------------0----------------2-------------------0----------
-----0-------------------------------------0------------------------------
 you really think this bloodied road would pave the way for you?   You   

--------2-----------------------------------0------------------------------
--------3-----------------------------------2------------------------------
--------2-----------------------------------2-----------------6------5-----
--------0-----------------------------------2-----------------x------x-----
--------------------------------------------0-----------------4------3-----
---------------------------------------------------------------------------
 better turn around and blow your kiss, hello to life eternal           

-----------------------------------------------------------------------------
-----------------------------------------------------------------------------
---------------2------2------------------------------------------------------
-4------3------x------2------2---1-----------------2---1-----------------2---
-x------x------2------0----0---0---0-4p3-0-0-0-0-0---0---0-4p3-0-0-0-0-0---0-
-2------1--------------------------------------------------------------------
                                                 

-----------------------------------------------------------------------------
-----------------------------------------------------------------------------
---------------------------------0--------0------0--------0--------0------0--
-1-----------------2---1------2--------2---------------2--------2------------
---0-4p3-0-0-0-0-0---0---0-4--------4--------4-4----3--------3--------3-3----
-----------------------------------------------------------------------------
                                                 

-----------------------------------------------------------------------------
-----------------------------------------------------------------------------
--------------------------------2--------2------2------------------6-6-6-6-6-
-------2--------2------2---------------------------4-4---4---4---4-7-7-7-7-7-
----4--------4---------------3--------3------------2-2-0-2-0-2-0-2-7-7-7-7-7-
-2--------2--------2-2----1--------1--------1-1--------------------5-5-5-5-5-
                                             

-----------------------------------------------------------------------------
-----------------------------------------------------------------------------
-6-6-6-4-4-4-4-4-4-4-4-2-2-2-2-2-2-2-2--7-7-7-7-9-9-9-9-9-9-9-9-9-9-9-9-7-7--
-7-7-7-5-5-5-5-5-5-5-5-3-3-3-3-3-3-3-3--x-x-x-x-x-x-x-x-x-x-x-x-x-x-x-x-x-x--
-7-7-7-5-5-5-5-5-5-5-5-3-3-3-3-3-3-3-3--5-5-5-5-7-7-7-7-7-7-7-7-7-7-7-7-5-5--
-5-5-5-3-3-3-3-3-3-3-3-1-1-1-1-1-1-1-1---------------------------------------
                                            

-----------------------------------------------------------------------------
-----------------------------------------------------------------------------
-7-7-9-9-9-9-9-9-9-9-9-9-9-9-7-7-7-7-9-9-9-9-9-9-9-9-9-9-9-9-7-7-7-7-9-9-9-9-
-x-x-x-x-x-x-x-x-x-x-x-x-x-x-x-x-x-x-x-x-x-x-x-x-x-x-x-x-x-x-x-x-x-x-x-x-x-x-
-5-5-7-7-7-7-7-7-7-7-7-7-7-7-5-5-5-5-7-7-7-7-7-7-7-7-7-7-7-7-5-5-5-5-7-7-7-7-
-----------------------------------------------------------------------------
                               

-----------------|-------|---------------------------------------------------
-----------------|-------|---------------------------------------------------
-9-9-9-9-9-9-9-9-|-------|-------0---0-----------0---0-----------0---0-------
-x-x-x-x-x-x-x-x-|-------|-----0---------------0---------------0-------------
-7-7-7-7-7-7-7-7-|-------|---4---------------4---------------4---------------
-----------------|-------|-5-------5---5-5-5-------5---5-5-3-------3---3-3-3-
                   verse   Outro                                       

----------------------------0-0--------------0-0-----------------------------
----------------------------0-0--------------0-0--3-3-3-3-3-3-3-3-3-3-3-3-3--
-----0---0------------------0-0--------------0-0--2-2-2-2-2-2-2-2-2-2-2-2-2--
---0----------------------------------------------0-0-0-0-0-0-0-0-0-0-0-0-0--
-4-------------2-2-----0-2--------------0-2----------------------------------
-------3---3-3-0-0--3-----------0-0--3---------------------------------------
                       (Em)                      

---------0-0-0-0-0-0-0-0-0-0-0-0-0-0-0-0-------------------------------------
-3-3-3-3-2-2-2-2-2-2-2-2-2-2-2-2-2-2-2-2-------------------------------------
-2-2-2-2-2-2-2-2-2-2-2-2-2-2-2-2-2-2-2-2-------------------------------------
-0-0-0-0-2-2-2-2-2-2-2-2-2-2-2-2-2-2-2-2-5-5-5-5-5-5-5-5/7-7-7-7-7-7-7-7/9-9-
---------0-0-0-0-0-0-0-0-0-0-0-0-0-0-0-0-x-x-x-x-x-x-x-x-x-x-x-x-x-x-x-x-x-x-
-----------------------------------------3-3-3-3-3-3-3-3/5-5-5-5-5-5-5-5/7-7-
                                                  

-----------------------------------------------------------------------------
-----------------------------------------------------------------------------
-----------------------------------------------------------------------------
-9-9-9-9-9-9/11-11-11-11-11-11-11-11/12-12-12-12-12-12-12-12/14-14-14-14-14--
-x-x-x-x-x-x-x--x--x--x--x--x--x--x--x--x--x--x--x--x--x--x--x--x--x--x--x---
-7-7-7-7-7-7/9--9--9--9--9--9--9--9-/10-10-10-10-10-10-10-10/12-12-12-12-12--
              
                                   
-----------------------------------------------------------------------------
-----------------------------------------------------------3-3-3-3-3-3-3-3-3-
-----------------------------------------------------------2-2-2-2-2-2-2-2-2-
-14-14-14/16-16-16-16-16-16-16-16-16-16-16-16-16-16-16-16--0-0-0-0-0-0-0-0-0-
-x--x--x--x--x--x--x--x--x--x--x--x--x--x--x--x--x--x--x---------------------
-12-12-12/14-14-14-14-14-14-14-14-14-14-14-14-14-14-14-14--------------------        
                   

--------------------------------------------------
-3-3-3-3-3-3-3-----2------2------2----------------
-2-2-2-2-2-2-2-----2------2------2--7-7-7-7/9-----
-0-0-0-0-0-0-0-----2------2------2--x-x-x-x-x-----
---------------x-x-0--x-x-0--x-x-0--5-5-5-5/7-7-7-
----------------------------------------------0-0-
           
_______________
Lyrics:

Eternal Life is now on my trail
Got my red glitter coffin, man, just need one last nail
While all these ugly gentlemen play out their foolish games
There's a flaming red horizon that screams our names

And as your fantasies are broken in two
Did you really think this bloody road would 
Pave the way for you?
You better turn around
and blow your kiss hello to life eternal, angel

Racist everyman, what have you done?
Man, you've made a killer of your unborn son...
Crown my fear your king at the point of a gun
All I want to do is love everyone...

And as your fantasies are broken in two
Did you really think this bloody road would 
Pave the way for you?
You better turn around 
and blow your kiss hello to life eternal....

There's no time for hatred, only questions
What is love, where is happiness, what is Life,
where is peace?
When will I find the strength to bring me release?

And tell me where is the love in what your prophet has said?
Man, It sounds to me just like a prison for the walking dead
And I've get a message for you and your twisted hell
You better turn around and blow your kiss goodbye
to life eternal angel...
            
Submit corrections

comments powered by Disqus
↑ Back to top | Jeff Buckley Tabs for Eternal Life. Lyrics for acoustic guitar and electric guitar. 1 Tablatures and chords are parodies/interpretations of the original songs. You may use it for private study, scholarship, research or language learning purposes only