» » »

Eternal Life Bass tabs (ver.1)

Artists:  A B C D E F G H I J K L M N O P Q R S T U V W X Y Z # 

Eternal Life Bass tabs (ver.1)

Jeff Buckley
Rating:
1/5 (1 vote)

Hard to play? Try these video lessons and learn fast.
                Eternal Life Bass Tab
This isnt exactly what is played on the record, only the sequence.
Good Luck!

INTRO 0:20

g-----------------------------------------------------|
d-----------------------------------------------------|  x2
a-----------------------------------------------------|
e-0-0-0001----0-0-0001---0-0-0001-----0-0-0001--------|


VERSE 0:40

g---------------------------------------------------------------------|
d---------------------------------------------------------------------|  x4
a--3-3-333-3----------------------------------------------------------|
e-------------3-3-3--1-1--5-5-3-5-5--5-5-3-5-5-5-5-5------------------|


CHORUS 1:20

g---------------------------------------------------------------------|
d---------------------------------------------------------------------| x1
a-----------------------------------------0-0-0-0---------------------|
e---3-3-3-3-3-3-3-0-0-0-0-0-0-0-0-2-2-2-2---------0-0-0-0-1-0-0-0-0---|


VERSE 1:40

g---------------------------------------------------------------------|
d---------------------------------------------------------------------|  x4
a--3-3-333-3----------------------------------------------------------|
e-------------3-3-3--1-1--5-5-3-5-5--5-5-3-5-5-5-5-5------------------|


CHORUS 2:21

g--------------------------------------------------|
d--------------------------------------------------| x1
a-----------------------------------------0-0-0-0--|
e---3-3-3-3-3-3-3-0-0-0-0-0-0-0-0-2-2-2-2----------|

BRIDGE 2:35

g-----------------------------------------|
d-----------------------------------------| x1
a---4-4-4-4-3-3-3-3---------------2-2-2-2-|
e------------------2-2-2-2-1-1-1-1--------|

       2:46

g--------------------------------------------|
d--------------------------------------------| x1
a---------7-6--------7-6-------7-6-------7-6-|
e--00000------55555-----55555-----55555------|

       2:58

g-----------------------------------------|
d-----------------------------------------| x1
a---4---------3---------------------------|
e------------------------2---------1------|
"Theres no time for hatred, only questions"


       3:08

g---------------------------------------------------------------------------------|
d---------------------------------------------------------------------------------|
a---------------------------------------------------------------------------------|
e-----2-2-2-2-2-2-2-2-0-0-0-0-0-0-0-0-3-3-3-3-3-3-3-3-3-2-2-2-2-2-2-2-2-2-2-2-----|
 "What is love" etc


       3:19

g-----------------------------------------------------|
d-----------------------------------------------------|  x1
a-----------------------------------------------------|
e-0-0-0001----0-0-0001---0-0-0001-----0-0-0001--------|

VERSE/SOLO 3:30

g---------------------------------------------------------------------|
d---------------------------------------------------------------------|  x4
a--3-3-333-3----------------------------------------------------------|
e-------------3-3-3--1-1--5-5-3-5-5--5-5-3-5-5-5-5-5------------------|

CHORUS 4:03

g--------------------------------------------------|
d--------------------------------------------------| x1
a-----------------------------------------0-0-0-0--|
e---3-3-3-3-3-3-3-0-0-0-0-0-0-0-0-2-2-2-2----------|
 "Aaaaannnggggeeeelllll      yeah"


OUTRO 4:23

g-------------------------------------------------------|
d-------------------------------------------------------|
a-0-0-2-2-3-3-5-5-7-7-8-8-10-10-12-12-------5-5-5-5-----|
e------------------------------------2-2-2-2------------|
            
Hard to play? Try these video lessons and learn fast. | Correct




comments powered by Disqus
↑ Back to top | Tablatures and chords are parodies/interpretations of the original songs. You may use it for private study, scholarship, research or language learning purposes only