» » »

Doa Death Of Auto Tune Tabs (ver.2)

Artists:  A B C D E F G H I J K L M N O P Q R S T U V W X Y Z # 

Doa Death Of Auto Tune Tabs (ver.2)

Jay-Z
Rating:
4/5 (3 votes)
Tabs too difficult? Try these video lessons and learn fast.
                (Intro)

    Jay-Z   --   D.O.A. (Death of Auto-Tune)   --   The Blueprint 3



    Verse Riff

e|------11--11/13--11-9--11--9-11/13--11-9-----11--11/13--11-9--11--9-11p9-11p9---|
B|--11-------------------------------------11-------------------------------------|
G|--------------------------------------------------------------------------------|
D|--------------------------------------------------------------------------------|
A|--------------------------------------------------------------------------------|
E|--------------------------------------------------------------------------------|

e|------11--11/13--11-9--11--9-11p9-11p9-6---------6------------------------------|
B|--11-------------------------------------6-6h7p6---6-6h7p6-6--------------------|
G|-----------------------------------------------------------8b10-----p6----------|
D|-----------------------------------------------------------------------8--------|
A|--------------------------------------------------------------------------------|
E|--------------------------------------------------------------------------------|



    Intro/'Na Na Na'

e|---------------------------------------------------------------------------------|
B|--------------11-13-11-13--11----11----------------------------------------------|
G|--10----10h13-----------------13--------13--12-10-12--10----10-12-13-12-10----10-|
D|---------------------------------------------------------13----------------13----|
A|---------------------------------------------------------------------------------|
E|---------------------------------------------------------------------------------|

-------------------------|
11h12p11h12p11h12....----|
-------------------------|
-------------------------|
-------------------------|
-------------------------|


   Chorus Chords

   Bbm  F#  C#  G#
            
Tabs too difficult? Try these video lessons and learn fast.


comments powered by Disqus
↑ Back to top | Tablatures and chords are parodies/interpretations of the original songs. You may use it for private study, scholarship, research or language learning purposes only