» » »

99 Problems Tabs (ver.1)

Artists:  A B C D E F G H I J K L M N O P Q R S T U V W X Y Z # 

99 Problems Tabs (ver.1)

Jay-Z
Rating:
3/5 (7 votes)

Hard to play? Try these video lessons and learn fast.
                

1st Verse
e|------------|
B|------------|
G|------------|
D|-2---0-2----| x4
A|-2---0-2----|
D|-2---0-2----|

1st Chorus
e|------------|
B|------------|
G|------------|
D|-2---0-2----| x1
A|-2---0-2----|
D|-2---0-2----|

2nd Verse
e|--------------------------------------------------------------|
B|--------------------------------------------------------------|
G|--------------------------------------------------------------|
D|-2---0-2----2---0-2--------0-2------2------2------2------0-2--|
A|-2---0-2----2---0-2--------0-2------2------2------2------0-2--|
D|-2---0-2----2---0-2--------0-2------2------2------2------0-2--|

2nd Chorus
e|------------|
B|------------|
G|------------|
D|-2---0-2----| x2
A|-2---0-2----|
D|-2---0-2----|

3rd Verse
e|--------------------------------------------------------------------|
B|--------------------------------------------------------------------|
G|--------------------------------------------------------------------|
D|-2---0-2-------0-2------0-0-2------0-2---2---2---2--0-0-2-----0-2---|
A|-2---0-2-------0-2------0-0-2------0-2---2---2---2--0-0-2-----0-2---|
D|-2---0-2-------0-2------0-0-2------0-2---2---2---2--0-0-2-----0-2---|

e|----------------------|
B|----------------------|
G|----------------------|
D|-0-0-22--22-22--0-0---|
A|-0-0-22--22-22--0-0---|
D|-0-0-22--22-22--0-0---|

3rd Chorus
e|-------------------------------------------------------|
B|-------------------------------------------------------|
G|-------------------------------------------------------|
D|-0-2---0-2----2---0-2---0000-2---0-2----2---0-2--0000-2| 
A|-0-2---0-2----2---0-2---0000-2---0-2----2---0-2--0000-2|
D|-0-2---0-2----2---0-2---0000-2---0-2----2---0-2--0000-2|

thats it 
            
Hard to play? Try these video lessons and learn fast. | Correct




comments powered by Disqus
↑ Back to top | Tablatures and chords are parodies/interpretations of the original songs. You may use it for private study, scholarship, research or language learning purposes only