» » »

Jay-Z, Doa Death Of Auto Tune Tabs (ver.1)

Artists:  A B C D E F G H I J K L M N O P Q R S T U V W X Y Z # 

Doa Death Of Auto Tune Tabs (ver.1)

Jay-Z Tabs
Rating:
3/5 (3 votes)
Doa Death Of Auto Tune lessons Tabs too difficult? Try these video lessons and learn fast
                SONG   D.O.A (DEATH OF AUTO-TUNE)
ARTIST JAY-Z
ALBUM  D.O.A (DEATH OF AUTO-TUNE)

VB=VIBRATE
PM=PALM MUTE
H=HAMMER ON
P=PULL OFF

SAX INTRO

e-18VB\6VB--------18VB\6VB--------|
B---------------------------------|
G---------------------------------|
D---------------------------------|
A---------------------------------|
E---------------------------------|

BASS LINE BEAT

PALM MUTE
e----------------------------------------|
B----------------------------------------|
G----------------------------------------|
D----------------------------------------|
A----------------------------------------|
E-6-6-1-4-1-4--6-6-1-4-1-4--6-6-1-4-1-4--|

I PLAY IT LIKE THIS


e---------------------------------------------------------|
B---------------------------------------------------------|
G---------------------------------------------------------|
D---------------------------------------------------------|
A---------------------------------------------------------|
E-6-66-6-1-4-1-4-6-66-6-1-4-1-4-6-66-1-4-1-4-666666666666-|

MAIN VERSE

e----13-11-9---11-9-13-11-9----11-13-11-9--11-9-11-9-11-9-|
B-11---------11-------------11-----------11---------------|
G---------------------------------------------------------|
D---------------------------------------------------------|
A---------------------------------------------------------|
E---------------------------------------------------------|

e---11-13-11-9--11-9-11-9-11-9-----------------------------------------|
B-11----------11-------------------------------------------------------|
G-----------------------------91110-91110-9-10vb- <--- is like 9 11 10-| like a run
D----------------------------------------------------------------------|
A----------------------------------------------------------------------|
E----------------------------------------------------------------------|


SAX VERSE

e-18-18-18-20-21-20-20-18-18\16-18-------------------------16-15H16P15----|
B----------------------------------16H18-18-18-18-18-16-14----------------|
G-------------------------------------------------------------------------|
D-------------------------------------------------------------------------|
A-------------------------------------------------------------------------|
E-------------------------------------------------------------------------|
            
Submit corrections

comments powered by Disqus
↑ Back to top | Jay-Z Tabs for Doa Death Of Auto Tune. Lyrics for acoustic guitar and electric guitar. Tablatures and chords are parodies/interpretations of the original songs. You may use it for private study, scholarship, research or language learning purposes only