» » »

Janes Addiction, Up The Beach Bass tabs (ver.2)

Artists:  A B C D E F G H I J K L M N O P Q R S T U V W X Y Z # 

Up The Beach Bass tabs (ver.2)

Janes Addiction Tabs
 Rating:
4/5 (4 votes)
Up The Beach lessons Tabs too difficult? Try these video lessons and learn fast
                Jane's Addiction - Up The Beach
Nothing's Shocking

Intro & Verse
G|---7-7-7-7-7h9p7--|
D|--0-0-0-0-0------.|
A|-----------------.|
E|------------------|

Pre-Chorus
G|---7-7-7-7-7h9--|
D|--0-0-0-0-0-----|
A|----------------|
E|----------------|

Chorus
G|-----------11---7-7-7----12-11-------12-11------12-11------12-11--------------------|
D|---7-7-7-7-----0-0-0-0--------12-11-------12-11------12-11------12-11--11-12-12-14--|
A|--0-0-0-0-0-----------------------0-----------0----------0----------0---------------|
E|------------------------------------------------------------------------------------|

Verse
G|---7-7-7-7-7h9p7--|
D|--0-0-0-0-0------.|
A|-----------------.|
E|------------------|

Pre-Chorus
G|---7-7-7-7-7h9--|
D|--0-0-0-0-0-----|
A|----------------|
E|----------------|

Chorus
G|-----------11---7-7-7----12-11------12-11-----12-11-----12-11-------------------------|
D|---7-7-7-7-----0-0-0-0--------12-11------12-11-----12-11-----12-11--11-11-12-12-14-14-|
A|--0-0-0-0-0-----------------------0----------0---------0---------0--------------------|
E|--------------------------------------------------------------------------------------|

Verse
G|---7-7-7-7-7h9p7--|
D|--0-0-0-0-0------.|
A|-----------------.|
E|------------------|

Pre-Chorus
G|---7-7-9-9-9-9--|
D|--0-0-0---------|
A|----------------|
E|----------------|

Chorus
G|-----------11---7-7-7----12-11--------12-11---------|
D|---7-7-7-7-----0-0-0-0----0--0-12-11---0--0--12-11--|
A|--0-0-0-0-0---------------------0--0----------0--0--|
E|----------------------------------------------------|
            
Submit corrections

comments powered by Disqus
↑ Back to top | Janes Addiction Bass for Up The Beach. Lyrics for acoustic guitar and electric guitar. Tablatures and chords are parodies/interpretations of the original songs. You may use it for private study, scholarship, research or language learning purposes only