» » »

Janes Addiction, Up The Beach Bass tabs (ver.1)

Artists:  A B C D E F G H I J K L M N O P Q R S T U V W X Y Z # 

Up The Beach Bass tabs (ver.1)

Janes Addiction Tabs
 Rating:
4/5 (4 votes)
Up The Beach lessons Tabs too difficult? Try these video lessons and learn fast
                Jane's Addiction
Nothing's Shocking


	* MAIN RIFF

G:|----7----7----7----7-----7h9H7-|
D:|-0-----0----0----0----0--------|: Repeat over the
A:|-------------------------------|:  intro & verse
E:|-------------------------------|

	* CHORUS 1 & 2

G:|----9----9----9----9----11-|-----7----7----7----7--------|
D:|---------------------------|--0-----0----0----0----5-4---|
A:|-7-----7----7----7----7----|---------------------------5-|
E:|---------------------------|-----------------------------|

G:|-------------|-------------|-------------|---------7--7----9--9/-|
D:|-------5-4---|-------5-4---|-------5-4---|-----------------------|
A:|-4^--------5-|-4^--------5-|-4^--------5-|-4^--4-5-------7-------|
E:|-------------|-------------|-------------|-----------------------|


	* CHORUS 3 (final)

G:|----9----9----9----9----11-|-----7----7----7----7--------|
D:|---------------------------|--0-----0----0----0----5-4---|
A:|-7-----7----7----7----7----|---------------------------5-|
E:|---------------------------|-----------------------------|

G:|-------------|-------|
D:|-------5-4---|-------|
A:|-4^--------5-|-4^----|
E:|-------------|-------|

--------------------------------------------------------------

AMOR Y PAZ
            
Submit corrections

comments powered by Disqus
↑ Back to top | Janes Addiction Bass for Up The Beach. Lyrics for acoustic guitar and electric guitar. Tablatures and chords are parodies/interpretations of the original songs. You may use it for private study, scholarship, research or language learning purposes only