» » »

Janes Addiction, Ted Just Admit It Bass tabs (ver.2)

Artists:  A B C D E F G H I J K L M N O P Q R S T U V W X Y Z # 

Ted Just Admit It Bass tabs (ver.2)

Janes Addiction Tabs
 Rating:
4/5 (4 votes)
Ted Just Admit It lessons Tabs too difficult? Try these video lessons and learn fast
1
                (1)
"ted, just admit it..."
 
        by jane's addiction, from `nothing's shocking'
 
   intro        main bass lick
G|-----------|-----------------------------|
D|--\4-\4-\4-|----4--2-2----0-4-2----------|
A|-----------|--2---------2----------------|
E|-----------|-----------------------------|
 
[Nothing special here, just some swift ghosts and pulls into the F#.]
 
strange-verse-like-bridge
 
"sex is vio-lent!" part 
G|------------------------|---------------------------|
D|------------------------|-------------4-2-----------|
A|------------------------|---------------------------|
E|--00000-0000-0000-0000--|--00000-0000----000--0000--|
 
[where there are five E's together means that there's a] 
[16th note couplet, listen and you can hear it.        ]
 
"i am the..." part
G|--------------------------|-------------------------|
D|--5--5b--5-5b--5-5b--5-5b-|-------------------------|
A|--------------------------|-------------------------|
E|---3------3-----3-----3---|--0300-00000-00000-0000--|
 
[the low G's are very fast, before the bent, high G's.]
 
"sex is violent!"
G|---------------------|-------------------------|
D|------------5-4------|-------------------------|
A|---------------------|-------------------------|
E|--0-0--0-0------0-0--|--0000-0000--0-0--00000--|
 
[mucho percussive and in time. it's hard to f**k up,] 
[but it can be done given enough carelessness.      ]
--

"im'm in the midst of a rtrauma, leave a message and i'll call you back..."

-d
            
Submit corrections

comments powered by Disqus
↑ Back to top | Janes Addiction Bass for Ted Just Admit It. Lyrics for acoustic guitar and electric guitar. 1 Tablatures and chords are parodies/interpretations of the original songs. You may use it for private study, scholarship, research or language learning purposes only