>
 >
Ted, Just Admit It...

Ted, Just Admit It... Bass Tabs

Janes Addiction - Ted, Just Admit It... chords, tabs, tablatures, lyrics

Guitar lessons | Add/correct | Request | Top 50 tabs Artists:  A B C D E F G H I J K L M N O P Q R S T U V W X Y Z 0-9

Ted, Just Admit It... Bass Tabs – Janes Addiction

CD, Sheet music, Poster

Do you like Ted, Just Admit It...? Share with your friends now
Bass Tabs
Tuning: E-A-D-G
Notes:
p - Pull-Off
h - Hammer-On
x - Mute Note
/ - Slide Up
\ - Slide Down

Intro: :26
G|-----------------|
D|--7p5--7p5--7p5--|
A|-----------------|
E|-----------------|


Verse 1:  Play from :28 until 2:36
G|------------------------|
D|-----4-------------7p5--|
A|--5-----7---------------|
E|-------------5-7-7------|


Chorus:  2:36
G|----------------------------------------------------------------|
D|-7-7-7-7-7-7-7-7-7-7-5-5-5-5-5/7-7-7-7-7-7-7-7-7-7-5-5-5--------|
A|---------------------------------------------------------5------|
E|-------------------------------------------------------------0--|

G|----------------------------------------------|
D|------------------------------------------7p5-|
A|-"Sex is violent"----7-7-7--7---9-7--7/10-----|
E|--------------------(0-0-0)-------------------|
          If you want (     ) 


Verse 2: Play from 2:56 to 3:43 
G|------------------------|
D|-----4-------------7p5--|
A|--5-----7---------------|
E|-------------5-7-7------|


Chorus:
G|-----------------------------------------------------------------|
D|-7-7-7-7-7-7-7-7-7-7-5-5-5-5-5/7-7-7-7-7-7-7-7-7-7-5-5-5---------|
A|---------------------------------------------------------7-5-5-5-|
E|-----------------------------------------------------------------|

G|-------------------------------|
D|-------------------------------|
A|-\0-0-0-0-0-0--3-3-3--5-5-5-5--|
E|-------------------------------| (x4)

G|--------------------------|
D|----------------------7p5-|
A|-7-7-7-7-7--9-7--7/10-----|
E|--------------------------|



Verse: 4:11 - 4:56
G|------------------------|
D|-----4-------------7p5--|
A|--5-----7---------------|
E|-------------5-7-7------|



Chorus:
G|-------------------------------------------------------------------|
D|-7-7-7-7-7-7-7-7-7-7-5-5-5-5-5/7-7-7-7-7-7-7-7-7-7-5-5-5-----------|
A|---------------------------------------------------------7-5-5-----|
E|----------------------------------------------------------------0~-|



  Drum & synth break

The song completely changes up here

New Verse 1: 5:32 - 5:57
G|-----------------------------------------------------------------------|
D|-----------------------------------------------------------------------|
A|-----------------------------------------------------------------------|
E|-0---x12\-0-0-0x12\-0-0-0x12\-0---0x12\-0-0-0x12\-0---0x12\-0-0-0x12\--|
   S   SS   S S SSS   S S SSS   S   SSS   S S SSS   S   SSS   S S SSS 
G|-----------------------------------------------------------------------|
D|-----------------------------------------------------------------------|
A|-----------------------------------------------------------------------|
E|-0--0x12\-0-0-0x12\-0-0-0x12\-0---0x12\-0-0-0x12\-0---0x12\-0-0-0x12\--|

G|---------------------|
D|---------------------|
A|---------------------|
E|-0--0x12\-0-0-0x12\--|
   S  SSS   S S SSS

New Chorus:  There are more A's played here than shown
G|-------------------------------------------------|
D|-------------------------------------------------|
A|-------------------------------------------------|
E|-5-5-5-5-53-5-5-5-5-5-5-5-5-5-5-53-5-5-5-5-5-5-5-|

  Drum Break

New Verse 2: 6:14 - 6:26 
G|----------------------------------------------------------------------|
D|----------------------------------------------------------------------|
A|----------------------------------------------------------------------|
E|-0--0x12\-0-0-0x12\-0---0x12\-0-0-0x12\-0---0x12\-0---0x12\-0-0-0x12\-|
   S  SSS   S S SSS   S   SSS   S S SSS   S   SSS   S   SSS   S S SSS
G|----------|
D|----------|
A|----------|
E|-0--0x12\-|
   S  SSS

New Chorus: There are more A's played here than shown 
G|-------------------------------------------------------|
D|-------------------------------------------------------|
A|-------------------------------------------------------|
E|-5-5-5-5-5p3h5-5-5-5-5-5-5-5-5-5-5p3h5-5-5-5-5-5-5-3h5-|


Outro: 6:38 - 7:16
G|----------------------------------------------------------------------|
D|----------------------------------------------------------------------|
A|----------------------------------------------------------------------|
E|-0---x12\-0-0-0x12\-0---0x12\-0-0-0x12\-0---0x12\-0-0-0x12\-0---0x12\-|
   S   SS   S S SSS   S   SSS   S S SSS   S   SSS   S S SSS   S   SSS
G|------------------------------------------------------------------------|
D|------------------------------------------------------------------------|
A|------------------------------------------------------------------------|
E|-0-0-0x12\-0---0x12\-0-0-0x12\-0---0x12\-0-0-0x12\-0---0x12\-0-0-0x12\--| (x2)
   S S SSS   S   SSS   S S SSS   S   SSS   S S SSS   S   SSS   S S SSS
G|------------------|
D|------------------|
A|------------------|
E|-0---0x12\-0-0-0--|
   S   SSS   S S S





Comments


Popular Janes Addiction tabs & chords
Jane Says Bass Tabs
Mountain Song 1 Bass Tabs
My Cat's Name Is Maceo Bass Tabs
Suffer Some 2 Bass Tabs
Ted, Just Admit It.. 1 Bass Tabs
My Cat's Name Is Maceo Tabs
Pigs In Zen Tabs
Pigs In Zen 1 Tabs
Suffer Some Tabs
Three Days 1 Tabs


Song lyrics



↑ Back to top | Tablatures and chords are parodies/interpretations of the original songs. You may use it for private study, scholarship, research or language learning purposes only
© 2014 AZChords.com Contact us | Privacy policy | DMCA | Add/correct tabs | Request tabs | Top 50 tabs