>
 >
Stop 2

Stop 2 Guitar Tabs

Janes Addiction - Stop 2 chords, tabs, tablatures, lyrics

Guitar lessons | Add/correct | Request | Top 50 tabs Artists:  A B C D E F G H I J K L M N O P Q R S T U V W X Y Z 0-9

Stop 2 Guitar Tabs – Janes Addiction

CD, Sheet music, Poster

Do you like Stop 2? Share with your friends now
Bass TabsBass Tabs v2TabsTabs v2Tabs v3Tabs v4
#------------------------------------------------------------------------------##



                                "Stop"
                                Janes Addiction

---------------------------------------------------------||---------------------|
---------------------------------------------------------||---------------------|
--------------------------------------------------------*||--------------9------|
7--7--7--7--7--7--5/7--7--7--7--7--7--7--9---9---9---9--*||--7--7--7--5--7------|
9--9--9--9--9--9--7/9--9--9--9--9--9--9--11--11--11--11--||--9--9--9--7---------|
---------------------------------------------------------||---------------------|


----------------------------------------------------------||---------------------|
----------------------------------------------------------||---------------------|
-\7---------------------9--9--7--------------9\7---------*||---------------------|
\-5--5/7----7--7--7--5--7--7--5--7--7--7--5--7\5-5/7--2--*||---------------------|
-----7/9----9--9--9--7-----------9--9--9--7------7/9--2---||---------------------|
------------------------------------------------------0---||---------------------|

================================================================================
==                           TABLATURE EXPLANATION                            ==
================================================================================
----------                            -----------|
----5h8--- Hammeron                   ----(8)----| Ghost Note
----------                            -----------|
----5p8--- Pulloff                    -----------|
----------                            -----------|
----5/8--- Slide Up                   -----x-----| Dead Note
----------                            -----------|
----5\8--- Slide Down                 -----------|
----------                            ||---------| Repeat Start & End
----5~~~-- Vibrato                    ||*----*---|
----------                            ||*----*---|
----------                            ||---------|
Rhythm:
  w = whole note            W = dotted whole
  h = half note             H = dotted half
  q = quarter note          Q = dotted quarter
  e = eighth note           E = dotted eighth
  s = sixteenth note        S = dotted sixteenth
  ^ = triplet
================================================================================
==           Created with a shareware version of the BUCKET 'O TAB            ==
==                  tablature creation software for Windows                   ==
==                           For more information:                            ==
================================================================================
This is the first time I tried using this program.  Please excuse me if you
can't read it or anything.


/\/\/\/\/\/\/\/\/\/\/\/\/\/\/\/\/\/\/\/\/\/\/\/\/\/\/\/\/\/\/\/\/\/\/\/\/\/\/\
(drum roll please...)
Mr. G.                               I have a window in my office!
(thank you...thank you all)
and if you must know
Dan Graeber    Dept of Microbiology
      Center For Microbial Ecology    Michigan State University
\/\/\/\/\/\/\/\/\/\/\/\/\/\/\/\/\/\/\/\/\/\/\/\/\/\/\/\/\/\/\/\/\/\/\/\/\/\/\/\


Lines: 68

this is a rough interpretation of the general movements of the song.
please don`t hold me to it.
anyone out there have an understanding of jane`s use of complementary
chords?  i mean, in STOP, during the verse, the main E G A chord pro is
complemented by some fancy chords up the neck.  Jane`s does similiar
things with AINT NO RIGHT & OCEAN SONG, among others... post something
if you have any clue what i`m talking about.
thanks,
m.

STOP
Jane`s Addiction

intro, clean tone, strummed to a modified `bo didley` beat
repeat 2 X:
e --------------------------------------------------|
B --------------------------------------------------|
G --7-x-6-x-7-x-7--6-/-7---7-x-7-x-7--8-8-8-8-8-8---|
D --6-x-6-x-6-x-6--5-/-6---6-x-6-x-6--7-7-7-7-7-7---|
A --7-x-7-x-7-x-7--6-/-7---7-x-7-x-7--8-8-8-8-8-8---|
E --------------------------------------------------|

riff 1, heavy distortion, repeat 4 times
e ---------------------------|
B ---------------------------|
G ---------------------------|
D -9-9-----7-7---------------|
A -7-7--9--5-4-7-/-9---------|
E ------7------5-/-7---------|

No One!... No One!  gonna, Stop!

riff 2, heavy distortion, lot`s of embellishments
e --------------------------|
B --------------------------|
G -----9--------------------|
D -2-x-9-x-----5-5--7-7-----|
A -2-x-7-x-----5-5--7-7-----|
E -0-x---x--0--3-3--5-5-----|

save the complaints for party conversation
the world is loaded.  it`s fit to pop & nobody`s gonna stop.
GO!
farm people, hook wavers, soul savers, love preacher! they`re lit to
pop
& nobody is gonna stop.

chords:  E (E7)  G (with lots of effects & variations)

one come a day, the water will run, no man will stand for things that
he had done.  Hurrah!  & the water will run.  One come a day, the water
will run, no man will stand for things that he had done.  Hurrah! & the
water will run.  Run!

(solo, i`m not gonna even bother to pretend)

no guitar:
gimme that! gimme that -- your automobile, turn off that smokestack &
that goddam radio!  hum, along w/ me, along w/ tv...

e -------------------------------|
B -------------------------------|
G -------------------------------|
D --2---1-/-4--4-/-6--6-/-12-----|
A --2---2-/-5--5-/-7--7-/-12-----|
E --0----------------------------|

No one`s gonna stop!

~Subject: TAB: STOP (jane`s addiction)

this is a rough interpretation of the general movements of the song.
please don`t hold me to it.
anyone out there have an understanding of jane`s use of complementary
chords?  i mean, in STOP, during the verse, the main E G A chord pro is
complemented by some fancy chords up the neck.  Jane`s does similiar
things with AINT NO RIGHT & OCEAN SONG, among others... post something
if you have any clue what i`m talking about.
thanks,
m.

STOP
Jane`s Addiction

intro, clean tone, strummed to a modified `bo didley` beat
repeat 2 X:
e --------------------------------------------------|
B --------------------------------------------------|
G --7-x-6-x-7-x-7--6-/-7---7-x-7-x-7--8-8-8-8-8-8---|
D --6-x-6-x-6-x-6--5-/-6---6-x-6-x-6--7-7-7-7-7-7---|
A --7-x-7-x-7-x-7--6-/-7---7-x-7-x-7--8-8-8-8-8-8---|
E --------------------------------------------------|

riff 1, heavy distortion, repeat 4 times
e ---------------------------|
B ---------------------------|
G ---------------------------|
D -9-9-----7-7---------------|
A -7-7--9--5-4-7-/-9---------|
E ------7------5-/-7---------|

No One!... No One!  gonna, Stop!

riff 2, heavy distortion, lot`s of embellishments
e --------------------------|
B --------------------------|
G -----9--------------------|
D -2-x-9-x-----5-5--7-7-----|
A -2-x-7-x-----5-5--7-7-----|
E -0-x---x--0--3-3--5-5-----|

save the complaints for party conversation
the world is loaded.  it`s fit to pop & nobody`s gonna stop.
GO!
farm people, hook wavers, soul savers, love preacher! they`re lit to
pop
& nobody is gonna stop.

chords:  E (E7)  G (with lots of effects & variations)

one come a day, the water will run, no man will stand for things that
he had done.  Hurrah!  & the water will run.  One come a day, the water
will run, no man will stand for things that he had done.  Hurrah! & the
water will run.  Run!

(solo, i`m not gonna even bother to pretend)

no guitar:
gimme that! gimme that -- your automobile, turn off that smokestack &
that goddam radio!  hum, along w/ me, along w/ tv...

e -------------------------------|
B -------------------------------|
G -------------------------------|
D --2---1-/-4--4-/-6--6-/-12-----|
A --2---2-/-5--5-/-7--7-/-12-----|
E --0----------------------------|

No one`s gonna stop!





Comments


Popular Janes Addiction tabs & chords
Ain't No Right Bass Tabs
Nothing Shocking Bass Tabs
True Nature 1 Bass Tabs
Been Caught Stealin Tabs
Been Caught Stealin 2 Tabs
Classic Girl Tabs
Mountain Song 1 Tabs
Strays Tabs
Whores 2 Tabs
Had A Dad Ukulele


Song lyrics



↑ Back to top | Tablatures and chords are parodies/interpretations of the original songs. You may use it for private study, scholarship, research or language learning purposes only
© 2014 AZChords.com Contact us | Privacy policy | DMCA | Add/correct tabs | Request tabs | Top 50 tabs