» » »

Stop Bass tabs (ver.1)

Artists:  A B C D E F G H I J K L M N O P Q R S T U V W X Y Z # 

Stop Bass tabs (ver.1)

Janes Addiction
Rating:
3/5 (6 votes)

Hard to play? Try these video lessons and learn fast.
                Stop - Jane's Addiction
Ritual de lo Habitual
Eric Avery
Standard Tuning

Key:
/ = slide up
\ = slide down
* = hold note
x = muted note
h = hammer on

Girl talks in Spanish then goes into guitar intro and then bass starts at 0:26


Intro/Chorus

G----------------------------------------------------------------|
D----------------------------------------------------------------|
A--7-7---5-4------7-7---5-5-4----7-7---5-4-----------------------|
E------7-----5/7------7-------5------7-----5/7--0*---------------|

G----------------------------------------------------------------|
D----------------------------------------------------------------|
A--7-7---5-4------7-7---5-5-4----7-7---5-4-----------------------|
E------7-----5/7------7-------5------7-----5/7--5*/19\0----------|


Verse/Solo

G-------------------------------------------|
D-------------------------------------------|
A-----------5--------5h7--------------------|
E--0--xx--0---3--5h7------------------------|

The mutes in the verse are optional.


Bridge

G--------------------------------------------------------------------------|
D-----------5------------5-----4-5-4-5--------------5--5-5-5-5-5-5---------|
A----7--7-------7*---7------7*-----------7----7-7-7-----------------7-5----|
E----0--0-------0*---0------0*-----------0---------------------------------|

G-----------------------------------------------------------|
D------------------------------5-5--5-5-5--5-5--------------|
A--5h7---7-7-7-7---7-7---7-7-7-----------------7-5----------|
E------0---------0-----0------------------------------------|

G--------------------------------------------------------------|
D------------------------5-5-5-5-5-5-5-5-5-5-------------------|
A--5h7---7-----7-7---7-7---------------------7-5---------------|   x3
E------0-----0-----0-------------------------------------------|

G----------------------------------------------------------|
D--------------------------5-5-5-5-5-5-5-5-5-5-------------|
A--5h7---5h7---5h7---5h7-----------------------7-5---------|  x2
E------0-----0-----0-----0---------------------------------|

G------------------------------------------------------------|
D------------------------------5-5-5-5-5-5-5-5-5-5-----------|
A--5h7---5h7---7---5h7---5h7-----------------------7-5*------|
E------0-----0---0-----0-----0-------------------------------|

G--------------------------------------|
D--------------------------------------|
A--7-7---5-4---------------------------|
E------7-----5/------------------------|


Part right before vocal break

G----------------------------------------------------------------|
D----------------------------------------------------------------|
A--------4-4-------------------2-3-4-5-6-7-8-9-10/17\------------|
E--0-2-2-----2-2---3--4--5--6--------------------------0*--------|


Bass Chords before Outro

G-----9*---8/11*--11/13*--13/19*-----------------------|
D-----9*---9/12*--12/14*--14/19*-----------------------|
A-----7*-----------------------------------------------|
E-----0*-----------------------------------------------|


Outro

G---------------------------------------------------------------|
D---------------------------------------------------------------|
A--7-7---5-4------7-7---5-5-4----7-7---5-4----------------------|
E------7-----5/7------7-------5------7-----5/7-0/19\0---0*------|
            
Hard to play? Try these video lessons and learn fast. | Correct




comments powered by Disqus
↑ Back to top | Tablatures and chords are parodies/interpretations of the original songs. You may use it for private study, scholarship, research or language learning purposes only