» » »

Mountain Song Bass tabs (ver.3)

Artists:  A B C D E F G H I J K L M N O P Q R S T U V W X Y Z # 

Mountain Song Bass tabs (ver.3)

Janes Addiction
Rating:
5/5 (5 votes)

Hard to play? Try these video lessons and learn fast.
                Mountain song:

Theres a couple litte added notes around the solo but they're really easy to pick out.
And I'm too lazy to put them in. 
But its a sick song, so enjoy.

|~~ = let ring|

  Verse
G|-------------------------------------------------|
D|-------------------------------------------------|
A|---------------10--------------------------------|
E|--10-12-12-12----12-12-12--10-12-12-12--0-0-0-0--|

  Chorus
G|------------------------------------|
D|------------------------------------|
A|------------12~~12-12---------12~~--| 
E|--10~~10-10----------10~~10-10------| 

Rate it, you wont. 
            
Hard to play? Try these video lessons and learn fast. | Correct




comments powered by Disqus
↑ Back to top | Tablatures and chords are parodies/interpretations of the original songs. You may use it for private study, scholarship, research or language learning purposes only