» » »

Janes Addiction, Mountain Song Tabs (ver.1)

Artists:  A B C D E F G H I J K L M N O P Q R S T U V W X Y Z # 

Mountain Song Tabs (ver.1)

Janes Addiction Tabs
Rating:
4/5 (2 votes)
Mountain Song lessons Tabs too difficult? Try these video lessons and learn fast
                #------------------------------------------------------------------------------##
"Mountain Song"  -Jane's Addiction


Intro:
Bass(and verse figure):
G---------------------------------|
D---------5-----------------------|
A-5-7-7-7---7-7-7-5-7-7-7---------|
E-------------------------0-0-0-0-|
Guitar(after bass *4):
E-----------------------------------------|
B---------9----------------9--------------|
G---------9----------------9--------------|
D-9-------9-------9--------9------2-------|
A-7---------------7---------------2-------|
E-0---------------0---------------0-------|
                                   'Coming down the mountain'
Guitar(verse):
E-------------------------------|
B-------------------------------|
G-------------------------------|
D-7/9-----12\9-----7/9----------|
A-5/7-----10\7-----5/7----------|
E----------------------0-0-0-0--|
                       |  PM  |
Guitar(chorus):
E---------------------------------------------------------------|
B---------7-7-7----------------7-7-7----------------------------|
G-7-------7-7-7---5--4--7------7-7-7---7-7-7-7-7-7-8-8-8-8-8-8--|
D-7-------7-7-7---5--4--7------7-7-7---7-7-7-7-7-7-8-8-8-8-8-8--|
A-5---------------3--2--5--------------5-5-5-5-5-5-6-6-6-6-6-6--|
E---------------------------------------------------------------|
The bass in the chorus strums a D5 then moves up to some other
chord I can't remember right now(E5?)

Solo(sort of):
E--------------------------------------------------------------------------------|
B----------------------------15--------------------------------------------------|
G-14-13-14-14-13-14-13-16-14--------14-14-13-------------------------------------|
D---------------------------------------------12-12-12-12-14---12-12-12-12-14----|
A--------------------------------------------------------------------------------|
E--------------------------------------------------------------------------------|
             (supposedly a vibrator)
E-----------x//////---x---x---x---x--------------------------------------------|
B-----------x//////---x---x---x---x--------------------------------------------|
G-----------x//////---x---x---x---x---16-16-16-16-14-14-14-14----13-14-13------|
D-12-11-----x//////---x---x---x---x--------------------------------------------|
A-----------x//////---x---x---x---x--------------------------------------------|
E-----------x//////---x---x---x---x--------------------------------------------|

E-------------------------------------15---17---20---\-----------------|
B----------------------------15----------------------------------------|
G-13-13-14-13-11----13-14-16----14-13----------------------------------|
D----------------------------------------------------------------------|
A----------------------------------------------------------------------|
E----------------------------------------------------------------------|

End:
E-------------------------------|
B-------------------------------|
G-------------------------------|
D-7/9-----12\9-----7/9-2--------|
A-5/7-----10\7-----5/7-2--------|
E----------------------0--------|


To be posted later:Stop, Three Days, Ted...Just Admit It, Had a Dad, City Song
Need help with: Ocean Size intro, Some of the runs in Three Days

'Til later
-Kooch
            

comments powered by Disqus
↑ Back to top | Janes Addiction Tabs for Mountain Song. Lyrics for acoustic guitar and electric guitar. Tablatures and chords are parodies/interpretations of the original songs. You may use it for private study, scholarship, research or language learning purposes only