» » »

Janes Addiction, City Song Tabs (ver.1)

Artists:  A B C D E F G H I J K L M N O P Q R S T U V W X Y Z # 

City Song Tabs (ver.1)

Janes Addiction Tabs
Rating:
5/5 (2 votes)
City Song lessons Tabs too difficult? Try these video lessons and learn fast
                This is a great song and it's darn easy

First section         
 G      G?
----333-0000----333-0000----333-0000----333-0000-
----333-3333----333-3333----333-3333----333-3333-
----000-0000----000-0000----000-0000----000-0000-
----000-0000----000-0000----000-0000----000-0000-
-2-2---------2-2---------2-2---------2-2---------
-3-3---------3-3---------3-3---------3-3---------

Second section
 D      D?
-222222-333333-222222-3333333---------------------
-333333-333333-333333-3333333---------------------
-222222-222222-222222-2222222---------------------
-000000-000000-000000-0000000---------------------
--------------------------------------------------
--------------------------------------------------

Third section (slower than first two)
 C C?
-0-00000-0-00000-0--00000-------------------------                                                                                   
-1-00000-1-00000-1--00000-------------------------
-0-00000-0-00000-0--00000-------------------------
-2-22222-2-22222-2--22222-------------------------
-3-33333-3-33333-3--33333-------------------------
--------------------------------------------------
            
Submit corrections

comments powered by Disqus
↑ Back to top | Janes Addiction Tabs for City Song. Lyrics for acoustic guitar and electric guitar. Tablatures and chords are parodies/interpretations of the original songs. You may use it for private study, scholarship, research or language learning purposes only