>
 >
City Song

City Song Guitar Tabs

Janes Addiction - City Song chords, tabs, tablatures, lyrics

Guitar lessons | Add/correct | Request | Top 50 tabs Artists:  A B C D E F G H I J K L M N O P Q R S T U V W X Y Z 0-9

City Song Guitar Tabs – Janes Addiction

CD, Sheet music, Poster

Do you like City Song? Share with your friends now
ChordsTabsTabs v2Ukulele


Jane's Addiction
Kettle Whistle



This is a great song and it's darn easy

First section
 G      G?
----333-0000----333-0000----333-0000----333-0000-|
----333-3333----333-3333----333-3333----333-3333-|
----000-0000----000-0000----000-0000----000-0000-|
----000-0000----000-0000----000-0000----000-0000-|
-2-2---------2-2---------2-2---------2-2---------|
-3-3---------3-3---------3-3---------3-3---------|

Second section
 D      D?
-222222-333333-222222-3333333---------------------|
-333333-333333-333333-3333333---------------------|
-222222-222222-222222-2222222---------------------|
-000000-000000-000000-0000000---------------------|
--------------------------------------------------|
--------------------------------------------------|

Third section (slower than first two)
 C C?
-0-00000-0-00000-0--00000-------------------------|
-1-00000-1-00000-1--00000-------------------------|
-0-00000-0-00000-0--00000-------------------------|
-2-22222-2-22222-2--22222-------------------------|
-3-33333-3-33333-3--33333-------------------------|
--------------------------------------------------|

Fourth Section

this next section is just a slower variation of sections one and two
with a slower section three as well.

The rest of the song is much the same with inverted D chords towards the end.

Lyrics
In the city there is something to see
In the city there is nothing to breathe
I'm goin''bout my business
I'm wondering what I'm missing
And on my way home, I hid in my coat
Wrote my name on the city wall
Being famous

In the city there is a park bench you can sleep out on
The city there is a trash can you can eat out of
I'm goin' 'bout my business
Wonderin' what I'm missing
And on my way home a cop said 'no'
I said, "there's a man with a stick and a gun in his hand"
Being famous

Red man in the city
Poor man in the city
Black man in the city
Fat man in the city
Red man
Black man
Fat man
Blue man

I don't know the rest of the words
'Cause I made it up just for you


--====================987654321_0==_

--====================987654321_0==_--





Comments


Popular Janes Addiction tabs & chords
Ain't No Right Bass Tabs
Curiosity Kills Bass Tabs
I Would For You 1 Bass Tabs
Jane Says Bass Tabs
Three Days Bass Tabs
City Song Chords
Thank You Boys Chords
Ocean Size 2 Tabs
Then She Did 1 Tabs
Up The Beach Tabs


Song lyrics



↑ Back to top | Tablatures and chords are parodies/interpretations of the original songs. You may use it for private study, scholarship, research or language learning purposes only
© 2014 AZChords.com Contact us | Privacy policy | DMCA | Add/correct tabs | Request tabs | Top 50 tabs