» » »

Pacemaker Bass tabs (ver.1)

Artists:  A B C D E F G H I J K L M N O P Q R S T U V W X Y Z # 

Pacemaker Bass tabs (ver.1)

Jamie T
Rating:
0/5 (0 votes)

Hard to play? Try these video lessons and learn fast.
                Jamie T - Pacemaker

Bass

Verse/Intro

G|---------1-2---1h2p1----------------------------------|
D|--2----2----------------------------------------------|
A|------------------------------------------------------|
E|------------------------------------------------------|


Chorus

G|------4---6-------------------------------------------|
D|--7----------6----4-----------------------------------|
A|------------------------------------------------------|
E|------------------------------------------------------|

G|------4---6---9---6-----------------------------------|
D|--7---------------------------------------------------|
A|------------------------------------------------------|
E|------------------------------------------------------|
            
Hard to play? Try these video lessons and learn fast. | Correct




comments powered by Disqus
↑ Back to top | Tablatures and chords are parodies/interpretations of the original songs. You may use it for private study, scholarship, research or language learning purposes only