» » »

St Christopher Tabs (ver.1)

Artists:  A B C D E F G H I J K L M N O P Q R S T U V W X Y Z # 

St Christopher Tabs (ver.1)

Jamie T
Rating:
5/5 (4 votes)

Hard to play? Try these video lessons and learn fast.
                Jamie T - St. Christopher

(Verse):
E---------------------------------------------------------------------------|
B---------------------------------------------------------------------------|
G-----7-----7---7/6------6-----6---6--------2-----2---2-----2-----2---2-----|
D---------------------------------------------------------------------------|
A---------------------------------------------------------------------------|
E-5-5---5-5--5------5-5----5-5---5------2-2---2-2---2---2-2---2-2---2-------|

(Bridge):
E---------------------------------------------------------------------------|
B---------------------------------------------------------------------------|
G-----4-----4---4-------2-----2---2------2-----2---2------------------------|
D---------------------------------------------------------------------------|
A---------------------------------------------------------------------------|
E-3-3---3-3---3---3/2-2---2-2---2----2-2---2-2---2--------------------------|

Seems like a heavy load
Anti-depressants lessen episodes
While the West End boys in their hand-me-down clothes
Brag about fights under her street lights
She walks alone the long way home
And oh she's a troubled soul
Oh so troubled but nobody knows.

Looks like his armour's old
Carrying chinks that his father used to own
And when he hits the bottle it definitely shows
He's a Machiavellian in a rebellion
I wish I could see how it would so follow
And oh he's a terrible state
Oh so terrible, drowning in hate.

(Chorus):
E---------------------------------------------------------------------------|
B---------------------------------------------------------------------------|
G-----7-----7---7-----7-----7---7-------9-----9---9-----9-----9---9---------|
D---------------------------------------------------------------------------|
A---------------------------------------------------------------------------|
E-7-7---7-7---7---7-7---7-7---7---7/9-9---9-9---9---9-9---9-9---9-----------|

E-----------------------------------------------------------------------------|
B-----------------------------------------------------------------------------|
G-------7-------7----7-------7-------7----7------6-----6---6---6---4---4---4--|
D-----------------------------------------------------------------------------|
A--------------------------------------------7-7---7-7---7---7---7---7---7----|
E-10-10---10-10---10---10-10---10-10---10-------------------------------------|

End on (Just before he says 'As long as St. Christopher's here)*:
E---------------------------------------------------------------------------|
B---------------------------------------------------------------------------|
G--9------------------------------------------------------------------------|
D---------------------------------------------------------------------------|
A--7------------------------------------------------------------------------|
E---------------------------------------------------------------------------|

But oh when you see him
He's smiling at the ceiling
And telling you he's never growing old

And oh when you see her
She smiles when you greet her
And tells you that she's never alone*

E---------------------------------------------------------------------------|
B---------------------------------------------------------------------------|
G-----2-----2---2------2-----2---2-----2-----2---2--------------------------|
D---------------------------------------------------------------------------|
A---------------------------------------------------------------------------|
E-2-2---2-2---2----4-4---4-4---4---6-6---6-6---6---6------------------------|

As long as St. Christopher's here (x4)

(Verse):
While a young professional city square mile
Worried for the first time in quite a while
She smirks then cursed let the bourgeois burn
More concerned with a friend who is wild
Encouraged by guys I don't trust
And I say leave 'em alone or I'll visit your home
Uh oh he's a loveable rogue
We'll all be responsible when he goes

(Chorus):
But oh when you see him
He's smiling at the ceiling
And telling you he's never growing old

And oh when you see her
She smiles when you greet her
And tells you that she's never alone

As long as St. Christopher's here (x4)
-----------------------------------------------------
Enjoy!
            
Hard to play? Try these video lessons and learn fast. | Correct




comments powered by Disqus
↑ Back to top | Tablatures and chords are parodies/interpretations of the original songs. You may use it for private study, scholarship, research or language learning purposes only