» » »

Jamie T, Pacemaker Bass tabs (ver.2)

Artists:  A B C D E F G H I J K L M N O P Q R S T U V W X Y Z # 

Pacemaker Bass tabs (ver.2)

Jamie T Tabs
 Rating:
4/5 (4 votes)
Pacemaker lessons Tabs too difficult? Try these video lessons and learn fast
                -------------------------------------------------------------------------------
			     Pacemaker – Jamie T
-------------------------------------------------------------------------------


Tuning: Standard

G|--------1-2-----1----------------------------------------------------------|
D|-2----2--------------------------------------------------------------------|
A|---------------------------------------------------------------------------|
E|---------------------------------------------------------------------------|

G|-------4---6-----4-----------4---6---9--6----------------------------------|
D|-7------------6----------7-------------------------------------------------|
A|---------------------------------------------------------------------------|
E|---------------------------------------------------------------------------|

G|-----------------------------------------------------------------------------|
D|--2-2------------------------------------------------------------------------|
A|------4-4—4h6-7-----5-5-4-4-2-2----------------------------------------------|
E|----------------5-5----------------------------------------------------------|

G|---------------------------------------------------------------------------|
D|-2-2-2-2-2-2-2-2-6-6-6-6-7-7-7-7-------------------------------------------|
A|---------------------------------------------------------------------------|
E|---------------------------------------------------------------------------|

| /  slide up
| \  slide down
| h  hammer-on
| p  pull-off
| ~  vibrato
| +  harmonic
| x  Mute note
===============================================================================
            
Submit corrections

comments powered by Disqus
↑ Back to top | Jamie T Bass for Pacemaker. Lyrics for acoustic guitar and electric guitar. Tablatures and chords are parodies/interpretations of the original songs. You may use it for private study, scholarship, research or language learning purposes only