» » »

Jamie T, Emily's Heart Tabs (ver.2)

Artists:  A B C D E F G H I J K L M N O P Q R S T U V W X Y Z # 

Emily's Heart Tabs (ver.2)

Jamie T Tabs
Rating:
0/5 (0 votes)
Emily's Heart lessons Tabs too difficult? Try these video lessons and learn fast
                -----------------------------------------------------------------------------
                             Emily's Heart - Jamie T
-----------------------------------------------------------------------------

Tuning: Standard 

Great song but tabs on this site were wrong, this probably isn't 100% but you can 
play along with the album version. e-mail me if you've got some problems with it 
and I'll change it, cheers and enjoy. 


Chords Used
   D  Em G*  B  G  A
E|--------------3--5--|
A|-5--7--10--2--5--7--|
D|-7--9--12--4--5--7--|
G|-7--9--12--4-(4)(6)-|
B|--------------------|
e|--------------------|



Verse One:

   D   G    D   G    D   G    A
E|----------------------------5--5-5-5--5--5-5-5--------------------------|
A|-5~--10~--5~--10~--5~--10~--7--7-7-7--7--7-7-7--------------------------|
D|-7~--12~--7~--12~--7~--12~--7--7-7-7--7--7-7-7--------------------------|
G|-7~--12~--7~--12~--7~--12~-(6)-------(6)--------------------------------|
B|------------------------------------------------------------------------|
e|------------------------------------------------------------------------|

   A         G         A         G         A         G         D
E|-5--5-5-5--3--3-3-3--5--5-5-5--3--3-3-3--5--5-5-5--3--3-3-3-------------|
A|-7--7-7-7--5--5-5-5--7--7-7-7--5--5-5-5--7--7-7-7--5--5-5-5--5--5-5-5-5-|
D|-7--7-7-7--5--5-5-5--7--7-7-7--5--5-5-5--7--7-7-7--5--5-5-5--7--7-7-7-7-|
G|(6)-------(4)-------(6)-------(4)-------(6)-------(4)--------7--7-7-7-7-|
B|------------------------------------------------------------(7)------(7)|
e|------------------------------------------------------------------------|


  D                       G                                 
A Bottle of wine, and an old 45, 
D                            G                            D
rifle in the corner that her grandfather left her when he died, 
     G
Said no surprise, 
     A
I’ve had to use it quite a few times, 
   A              G           A
So Jay, don’t you ever let us down, 
          G
Don’t you ever, 
     A                     G                   D
I’ll have to shoot you and no one will hear a sound… 


Chorus:

   D        Em         G             D         C         G
E|-------------------------------------------------------3--3-3-3---------|
A|-5--5-5-5--7--7-7-7--10--10-10-10--5--5-5-5--3--3-3-3--5--5-5-5---------|
D|-7--7-7-7--9--9-9-9--12--12-12-12--7--7-7-7--5--5-5-5--5--5-5-5---------|
G|-7--7-7-7--9--9-9-9--12--12-12-12--7--7-7-7--5--5-5-5-(4)---------------|
B|------------------------------------------------------------------------|
e|------------------------------------------------------------------------|x2

  A         G         A         G         A         G         D
E|-5--5-5-5--3--3-3-3--5--5-5-5--3--3-3-3--5--5-5-5--3--3-3-3-------------|
A|-7--7-7-7--5--5-5-5--7--7-7-7--5--5-5-5--7--7-7-7--5--5-5-5--5--5-5-5-5-|
D|-7--7-7-7--5--5-5-5--7--7-7-7--5--5-5-5--7--7-7-7--5--5-5-5--7--7-7-7-7-|
G|(6)-------(4)-------(6)-------(4)-------(6)-------(4)--------7--7-7-7-7-|
B|------------------------------------------------------------(7)------(7)|
e|------------------------------------------------------------------------|


D           Em      G
Bruised and bloody, I’m lying on the ground, 
D        C            G
And I am aware that I let the poor girl down, 
D       Em          G
Now I’m dying, as a message to the town, 
D         C         G
This what happens, if you f**k around, 
A                     G
So meddle if you want trouble, 
A                       G
trouble then you should meddle, 
A              G                   D
But don’t ever meddle with Emily’s heart… 


Verse Two:


E|----------------------------------------------------|
A|--5-5-5-5-/7-7-7-7-/2-2-2-2-2-2-2-2-----------------|
D|-----7---7----9---9----4---4---4---4----------------|
G|---7---7----9---9----4---4---4---4------------------|
B|----------------------------------------------------|
e|----------------------------------------------------|x2

E|----------------------------------------------------|
A|-5-5-5-5-/7-7-7-7-/-10--10--10--10--10--10--10------|
D|----7---7----9---9--------12------12------12--------|
G|--7---7----9---9------12------12------12------12----|
B|----------------------------------------------------|
e|----------------------------------------------------|

E|----------------------------------------------------|
A|--5-5-5-5-/7-7-7-7-/2-2-2-2-2-2-2-2-----------------|
D|-----7---7----9---9----4---4---4---4----------------|
G|---7---7----9---9----4---4---4---4------------------|
B|----------------------------------------------------|
e|----------------------------------------------------|x3

E|----------------------------------------------------|
A|-5-5-5-5-/7-7-7-7-/-10--10--10--10--10--10--10------|
D|----7---7----9---9--------12------12------12--------|
G|--7---7----9---9------12------12------12------12----|
B|----------------------------------------------------|
e|----------------------------------------------------|

E|----------------------------------------------------|
A|--5-5-5-5-/7-7-7-7-/2-2-2-2-2-2-2-2-----------------|
D|-----7---7----9---9----4---4---4---4----------------|
G|---7---7----9---9----4---4---4---4------------------|
B|----------------------------------------------------|
e|----------------------------------------------------|x4

E|----------------------------------------------------|
A|--5-5-5-5-/7-7-7-7-/2-2-2-2-2-2-2-2-2-2-2-2-2-2-----|
D|-----7---7----9---9----4---4---4---4---4---4---4~---|
G|---7---7----9---9----4---4---4---4---4---4---4------|
B|----------------------------------------------------|
e|----------------------------------------------------|

          D        Em           B         
She said, get your coat, come on,
       D                  Em                                             
To the dog track with the money right,
B                                               
Yeah we had some fun, 
D         Em            G                               
Left with more ‘cause we won, 
      D            Em           B                                          
I was under investigation on suspicion of doing her wrong, 
          D          Em          B                                       
She said, You’ve become a villain, 
D            Em        B                    
accused of a hit and run, 
      D          Em         G                         D                 
Said, she hit me first, and I, say it’s the worst that I ever felt, 
Em              B                        
In a broken heart. 
D           Em     B                                                 
Bloodstains on her shirt crease and, 
D        Em           B      
hope she pays the dues,
D       Em           B                              D           Em         
When I left she said, that your last breath will be down by the station at 2,
B
Swear she shot me down. 


Chorus:

   D        Em         G             D         C         G
E|-------------------------------------------------------3--3-3-3---------|
A|-5--5-5-5--7--7-7-7--10--10-10-10--5--5-5-5--3--3-3-3--5--5-5-5---------|
D|-7--7-7-7--9--9-9-9--12--12-12-12--7--7-7-7--5--5-5-5--5--5-5-5---------|
G|-7--7-7-7--9--9-9-9--12--12-12-12--7--7-7-7--5--5-5-5-(4)---------------|
B|------------------------------------------------------------------------|
e|------------------------------------------------------------------------|x2

  A         G         A         G         A         G         D
E|-5--5-5-5--3--3-3-3--5--5-5-5--3--3-3-3--5--5-5-5--3--3-3-3-------------|
A|-7--7-7-7--5--5-5-5--7--7-7-7--5--5-5-5--7--7-7-7--5--5-5-5--5--5-5-5-5-|
D|-7--7-7-7--5--5-5-5--7--7-7-7--5--5-5-5--7--7-7-7--5--5-5-5--7--7-7-7-7-|
G|(6)-------(4)-------(6)-------(4)-------(6)-------(4)--------7--7-7-7-7-|
B|------------------------------------------------------------(7)------(7)|
e|------------------------------------------------------------------------|


D           Em      G
Bruised and bloody, I’m lying on the ground, 
D        C            G
And I am aware that I let the poor girl down, 
D       Em          G
Now I’m dying, as a message to the town, 
D         C         G
This what happens, if you f**k around, 
A                     G
So meddle if you want trouble, 
A                       G
trouble then you should meddle, 
A              G                   D
But don’t ever meddle with Emily’s heart… 


Verse Three

    D    G     D            G     D            G     D           G    D
E|--------------------------------------------------------------------------|
A|--5~---10~---5~-5-5--5~---10~---5~-5-5--5~---10~---5~-5-5--5~--10~--5~-5-5|
D|---7~----12~--7-7-7---7~---12~---7-7-7---7~---12~---7-7-7---7~--12~--7-7-7|
G|---7~----12~--7-7-7---7~---12~---7-7-7---7~---12~---7-7-7---7~--12~--7-7-7|
B|--------------------------------------------------------------------------|
e|--------------------------------------------------------------------------|

   D         G             D
E|-----------------------------------------------------------|
A|-5--5-5-5--10--10-10-10--5--5-5-5-5~-----------------------|
D|-7--7-7-7--12--12-12-12--7--7-7-7-7~-----------------------|
G|-7--7-7-7--12--12-12-12--7--7-7-7-7~-----------------------|
B|(6)-------(12)----------(6)--------------------------------|
e|-----------------------------------------------------------|x2

   D         G             D           G
E|----------------------------------------------------------------|
A|-5--5-5-5--10--10-10-10--5--5-5-5-5--10--10-10-10--10--10-10-10-|
D|-7--7-7-7--12--12-12-12--7--7-7-7-7--12--12-12-12--12--12-12-12-|
G|-7--7-7-7--12--12-12-12--7--7-7-7-7--12--12-12-12--12--12-12-12-|
B|(6)-------(12)----------(6)---------(12)----------(12)----------|
e|----------------------------------------------------------------|

    Em                  G
E|-----------------------------------------------------------|
A|--7--7-7-7--7--7-7-7--10--10-10-10--10--10-10-10-----------|
D|--9--9-9-9--9--9-9-9--12--12-12-12--12--12-12-12-----------|
G|--9--9-9-9--9--9-9-9--12--12-12-12--12--12-12-12-----------|
B|-(8)-------(8)-------(12)----------(12)--------------------|
e|-----------------------------------------------------------|


D              G                 D                 
She said I’m a user, and she’s a loser with a gun, 
D             G                    D
I said if you choose to it becomes hard to include anyone,
D         G            D
So if you stay, put it away, or should I run? 
D          G                   D                                
She said I think you know the answer to your question, 
D          G                      D
So for the smiles, and all of the miles that the engine’s done, 
D             G              D
The further I drive away the closer we become, 
D       G                      D                      G        
So if I stay, would you put it away, and forgive this one son? 
Em                       G
She said Jay I think you know the answer to your question… 


Chorus:

   D        Em         G             D         C         G
E|-------------------------------------------------------3--3-3-3---------|
A|-5--5-5-5--7--7-7-7--10--10-10-10--5--5-5-5--3--3-3-3--5--5-5-5---------|
D|-7--7-7-7--9--9-9-9--12--12-12-12--7--7-7-7--5--5-5-5--5--5-5-5---------|
G|-7--7-7-7--9--9-9-9--12--12-12-12--7--7-7-7--5--5-5-5-(4)---------------|
B|------------------------------------------------------------------------|
e|------------------------------------------------------------------------|x2

  A         G         A         G         A         G         D
E|-5--5-5-5--3--3-3-3--5--5-5-5--3--3-3-3--5--5-5-5--3--3-3-3-------------|
A|-7--7-7-7--5--5-5-5--7--7-7-7--5--5-5-5--7--7-7-7--5--5-5-5--5--5-5-5-5-|
D|-7--7-7-7--5--5-5-5--7--7-7-7--5--5-5-5--7--7-7-7--5--5-5-5--7--7-7-7-7-|
G|(6)-------(4)-------(6)-------(4)-------(6)-------(4)--------7--7-7-7-7-|
B|------------------------------------------------------------(7)------(7)|
e|------------------------------------------------------------------------|


D           Em      G
Bruised and bloody, I’m lying on the ground, 
D        C            G
And I am aware that I let the poor girl down, 
D       Em          G
Now I’m dying, as a message to the town, 
D         C         G
This what happens, if you f**k around, 
A                     G
So meddle if you want trouble, 
A                       G
trouble then you should meddle, 
A              G                   D
But don’t ever meddle with Emily’s heart… 



************************************

| /   slide up
| \   slide down
| h   hammer-on
| p   pull-off
| ~   vibrato
| +   harmonic
| x   Mute note
| b   Bend
| pb  Pre-bend
| br  Bend release
| pbr Pre-bend release
| brb Bend release bend

************************************
            

comments powered by Disqus
↑ Back to top | Jamie T Tabs for Emily's Heart. Lyrics for acoustic guitar and electric guitar. Tablatures and chords are parodies/interpretations of the original songs. You may use it for private study, scholarship, research or language learning purposes only