» » »

Jamie T, Emily's Heart Tabs (ver.1)

Artists:  A B C D E F G H I J K L M N O P Q R S T U V W X Y Z # 

Emily's Heart Tabs (ver.1)

Jamie T Tabs
Rating:
0/5 (0 votes)
Emily's Heart lessons Tabs too difficult? Try these video lessons and learn fast
                Dear Users,

I got these tabs from a live acoustic session of Jamie T, so they may not fit perfectly 
the recorded version of this song. However, they sound great on the acoustic and with 
song, obviously if Mr Jamie T himself used them. I hope they are understandable and correct.

Enjoy

Anita Barnett

Verse 1: Strum

e-----------------------------------------------------------------------|
b-----------------------------------------------------------------------|
g---7-------12-------7----------------7-------12------------------------|
d---7-------12-------7--------7-------7-------12-------7----------------|
a---5-------10-------5--------7-------5-------10-------7----------------|
e-----------------------------5------------------------5----------------|

A bottle of wine and an old 45 rifle in the corner
That her grandfather left her when he died
Said no surprise I've had to use it quite a few times

e-----------------------------------------------------------------------|
b-----------------------------------------------------------------------|
g-----------------------------------------------------------------------|
d---7----5----7----5----7----5----9-------------------------------------|
a---7----5----7----5----7----5----9-------------------------------------|
e---5----3----5----3----5----3----7-------------------------------------|

So j don't you ever let us down, don't you ever,
I'll have to shoot you and no one will hear a sound.

Chorus: Strum

e-----------------------------------------------------------------------|
b-----------------------------------------------------------------------|
g---7----9----12--12----7----5------------------------------------------|
d---7----9----12--12----7----5----5-------------------------------------|
a---5----7----10--10----5----3----5-------------------------------------|
e---------------------------------3-------------------------------------|

Bruised and bloody I'm lying on the ground
I am aware that I let the poor girl down

e-----------------------------------------------------------------------|
b-----------------------------------------------------------------------|
g---7----9----12--12----7----5------------------------------------------|
d---7----9----12--12----7----5----5-------------------------------------|
a---5----7----10--10----5----3----5-------------------------------------|
e---------------------------------3-------------------------------------|

And now i'm dying, as a message to the town
This' what happens if you f**k around

e-----------------------------------------------------------------------|
b-----------------------------------------------------------------------|
g---------------------------7-------------------------------------------|
d---7---5---7---5---7---5---7-------------------------------------------|
a---7---5---7---5---7---5---5-------------------------------------------|
e---5---3---5---3---5---3-----------------------------------------------|

If ya meddle you wan't trouble
Trouble then you should meddle
Don't ever meddle with Emily's heart.

Verse 2: Pluck

e-----------------------------------------------------------------------|
b-----------------------------------------------------------------------|
g-------7-------7-------9------9----------------------------------------|
d-----7---7---7---7---9---9--9---9----9-------9-------9-------9---------|
a---5-------5------5/7-----7--------9---9---9---9---9---9---9---9-------|
e---------------------------------7-------7-------7-------7-------7-----|

She said get ya coat come on

e-----------------------------------------------------------------------|
b-----------------------------------------------------------------------|
g-------7-------7-------9------9---------12------12------12------12-----|
d-----7---7---7---7---9---9--9---9-----12--12--12--12--12--12--12--12---|
a---5-------5------5/7-----7-------7/10-----10-------10------10------10-|
e-----------------------------------------------------------------------|

To the dog track with the money right
Yea we had some fun

e-----------------------------------------------------------------------|
b-----------------------------------------------------------------------|
g-------7-------7-------9------9----------------------------------------|
d-----7---7---7---7---9---9--9---9----5-------5-------5-------5---------|
a---5-------5------5/7-----7--------5---5---5---5---5---5---5---5-------|
e---------------------------------3-------3-------3-------3-------3-----|

Left with more cos we won

e-----------------------------------------------------------------------|
b-----------------------------------------------------------------------|
g-------7-------7-------9------9---------12------12------12------12-----|
d-----7---7---7---7---9---9--9---9-----12--12--12--12--12--12--12--12---|
a---5-------5------5/7-----7-------7/10-----10-------10------10------10-|
e-----------------------------------------------------------------------|

I was under investigation
Of suspicion of doing her wrong

e-----------------------------------------------------------------------|
b-----------------------------------------------------------------------|
g-------7-------7-------9------9----------------------------------------|
d-----7---7---7---7---9---9--9---9----9-------9-------9-------9---------|
a---5-------5------5/7-----7--------9---9---9---9---9---9---9---9-------|
e---------------------------------7-------7-------7-------7-------7-----|

She said "you've become a villain

e-----------------------------------------------------------------------|
b-----------------------------------------------------------------------|
g-------7-------7-------9------9---------12------12------12------12-----|
d-----7---7---7---7---9---9--9---9-----12--12--12--12--12--12--12--12---|
a---5-------5------5/7-----7-------7/10-----10-------10------10------10-|
e-----------------------------------------------------------------------|

Accused of a hit and run.

e-----------------------------------------------------------------------|
b-----------------------------------------------------------------------|
g-------7-------7-------9------9----------------------------------------|
d-----7---7---7---7---9---9--9---9----5-------5-------5-------5---------|
a---5-------5------5/7-----7--------5---5---5---5---5---5---5---5-------|
e---------------------------------3-------3-------3-------3-------5-----|

Said "ya hit me first" and I say it's the worst I've ever felt

e-----------------------------------------------------------------------|
b-----------------------------------------------------------------------|
g-------7-------7-------9------9----------------------------------------|
d-----7---7---7---7---9---9--9---9----9-------9-------9-------9---------|
a---5-------5------5/7-----7--------9---9---9---9---9---9---9---9-------|
e---------------------------------7-------7-------7-------7-------7-----|

in a broken heart,

e-----------------------------------------------------------------------|
b-----------------------------------------------------------------------|
g-------7-------7-------9------9---------12------12------12------12-----|
d-----7---7---7---7---9---9--9---9-----12--12--12--12--12--12--12--12---|
a---5-------5------5/7-----7-------7/10-----10-------10------10------10-|
e-----------------------------------------------------------------------|

Said blood stains and a shirt creased

e-----------------------------------------------------------------------|
b-----------------------------------------------------------------------|
g-------7-------7-------9------9----------------------------------------|
d-----7---7---7---7---9---9--9---9----9-------9-------9-------9---------|
a---5-------5------5/7-----7--------9---9---9---9---9---9---9---9-------|
e---------------------------------7-------7-------7-------7-------7-----|

well she pays the dues

e-----------------------------------------------------------------------|
b-----------------------------------------------------------------------|
g-------7-------7-------9------9---------12------12------12------12-----|
d-----7---7---7---7---9---9--9---9-----12--12--12--12--12--12--12--12---|
a---5-------5------5/7-----7-------7/10-----10-------10------10------10-|
e-----------------------------------------------------------------------|

When I left she said that your last breath

e-----------------------------------------------------------------------|
b-----------------------------------------------------------------------|
g-------7-------7-------9------9----------------------------------------|
d-----7---7---7---7---9---9--9---9----5-------5-------5-------5---------|
a---5-------5------5/7-----7--------5---5---5---5---5---5---5---5-------|
e---------------------------------3-------3-------3-------3-------3-----|

will be down at the station at 2
So she shot me down.

e-----------------------------------------|
b-----------------------------------------|
g-----------------------------------------|
d-------5-------5-------5-------5---------|
a-----5---5---5---5---5---5---5---5-------|
e---3-------3-------3-------3-------5-----|


Chorus: Strum

e-----------------------------------------------------------------------|
b-----------------------------------------------------------------------|
g---7----9----12--12----7----5------------------------------------------|
d---7----9----12--12----7----5----5-------------------------------------|
a---5----7----10--10----5----3----5-------------------------------------|
e---------------------------------3-------------------------------------|

Bruised and bloody I'm lying on the ground
I am aware that I let the poor girl down

e-----------------------------------------------------------------------|
b-----------------------------------------------------------------------|
g---7----9----12--12----7----5------------------------------------------|
d---7----9----12--12----7----5----5-------------------------------------|
a---5----7----10--10----5----3----5-------------------------------------|
e---------------------------------3-------------------------------------|

And now i'm dying, as a message to the town
This' what happens if you f**k around

e-----------------------------------------------------------------------|
b-----------------------------------------------------------------------|
g---------------------------7-------------------------------------------|
d---7---5---7---5---7---5---7-------------------------------------------|
a---7---5---7---5---7---5---5-------------------------------------------|
e---5---3---5---3---5---3-----------------------------------------------|

If ya meddle you wan't trouble
Trouble then you should meddle
Don't ever meddle with Emily's heart.


Verse 3: Slow Plucking

e-----------------------------------------------------------------------|
b-----------------------------------------------------------------------|
g-------7-------7------7------------------------------------------------|
d-----7---7---5---5--7--------------------------------------------------|
a---5-------7------0-------5--------------------------------------------|
e-----------------------------------------------------------------------|

She said i'm a user and she's a loser with a gun

e-----------------------------------------------------------------------|
b-----------------------------------------------------------------------|
g-------7-------7------7------------------------------------------------|
d-----7---7---5---5--7--------------------------------------------------|
a---5-------7------0-------5--------------------------------------------|
e-----------------------------------------------------------------------|

I said if you choose to it becomes hard to include anyone

e-----------------------------------------------------------------------|
b-----------------------------------------------------------------------|
g-------7-------7------7------------------------------------------------|
d-----7---7---5---5--7--------------------------------------------------|
a---5-------7------0-------5--------------------------------------------|
e-----------------------------------------------------------------------|

So if you stay put it away or should I run?

e-----------------------------------------------------------------------|
b-----------------------------------------------------------------------|
g-------7-------7------12-----------------------------------------------|
d-----7---7---5---5--12-------------------------------------------------|
a---5-------7------10---------------------------------------------------|
e-----------------------------------------------------------------------|

She said I think you know the answer to your question


Verse 3: Fast Plucking

e-----------------------------------------------------------------------|
b-----------------------------------------------------------------------|
g-------7-------7--------7-------7-------7-------7-------7-------7------|
d-----7---7---7---7----5---5---5---5---7---7---7---7---7---7---7---7----|
a---5-------5------5/7-------7-------0-------0-------0-------0-------0--|
e-----------------------------------------------------------------------|

So for the smiles and all of the miles the engine's done

e-----------------------------------------------------------------------|
b-----------------------------------------------------------------------|
g-------7-------7--------7-------7-------7-------7-------7-------7------|
d-----7---7---7---7----5---5---5---5---7---7---7---7---7---7---7---7----|
a---5-------5------5/7-------7-------0-------0-------0-------0-------0--|
e-----------------------------------------------------------------------|

The further i drive away the closer we become

e-----------------------------------------------------------------------|
b-----------------------------------------------------------------------|
g-------7-------7--------7-------7-------7-------7-------7-------7------|
d-----7---7---7---7----5---5---5---5---7---7---7---7---7---7---7---7----|
a---5-------5------5/7-------7-------0-------0-------0-------0-------0--|
e-----------------------------------------------------------------------|
So if I stay would you put it away and forgive just one son?

e-----------------------------------------------------------------------|
b-----------------------------------------------------------------------|
g-------7-------7--------7-------7--------12-----12------12------12-----|
d-----7---7---7---7----5---5---5---5---12--12--12--12--12--12--12--12---|
a---5-------5------5/7-------7-------10------10------10------10------10-|
e-----------------------------------------------------------------------|

She said J I think you know the answer to your question.


Chorus: Strum

e-----------------------------------------------------------------------|
b-----------------------------------------------------------------------|
g---7----9----12--12----7----5------------------------------------------|
d---7----9----12--12----7----5----5-------------------------------------|
a---5----7----10--10----5----3----5-------------------------------------|
e---------------------------------3-------------------------------------|

Bruised and bloody I'm lying on the ground
I am aware that I let the poor girl down

e-----------------------------------------------------------------------|
b-----------------------------------------------------------------------|
g---7----9----12--12----7----5------------------------------------------|
d---7----9----12--12----7----5----5-------------------------------------|
a---5----7----10--10----5----3----5-------------------------------------|
e---------------------------------3-------------------------------------|

And now i'm dying, as a message to the town
This' what happens if you f**k around

e-----------------------------------------------------------------------|
b-----------------------------------------------------------------------|
g---------------------------7-------------------------------------------|
d---7---5---7---5---7---5---7-------------------------------------------|
a---7---5---7---5---7---5---5-------------------------------------------|
e---5---3---5---3---5---3-----------------------------------------------|

If ya meddle you wan't trouble
Trouble then you should meddle
Don't ever meddle with Emily's heart.

By Anita Barnett
            

comments powered by Disqus
↑ Back to top | Jamie T Tabs for Emily's Heart. Lyrics for acoustic guitar and electric guitar. Tablatures and chords are parodies/interpretations of the original songs. You may use it for private study, scholarship, research or language learning purposes only