>
 >
I Miss You 2

I Miss You 2 Guitar Tabs

Jamestown Story - I Miss You 2 chords, tabs, tablatures, lyrics

Guitar lessons | Add/correct | Request | Top 50 tabs Artists:  A B C D E F G H I J K L M N O P Q R S T U V W X Y Z 0-9

I Miss You 2 Guitar Tabs – Jamestown Story

CD, Sheet music, Poster

Do you like I Miss You 2? Share with your friends now
ChordsTabsTabs v2Tabs v3Tabs v4Tabs v5Tabs v6Tabs v7Ukulele
-----------------------------------------------------------------------------
                             I Miss You - And then I turned Seven
-----------------------------------------------------------------------------

Tuning:  F Bb F F Bb F

     Intro     (Guitar One)

F |-----0---------0----------0-------0---------0--------0-------0-------0---|
Bb|---0----0----0---0----0-------0-----------0---0----0---0---0---0---0---0-|
F |-5---------5----------------------------2--------2-------0-------0-------|
F |-----------------------3--------3----------------------------------------|
Bb|-------------------------------------------------------------------------|
F |-------------------------------------------------------------------------|

F |-----0-------0--------0------0-------0--------0---------0-------0--------|
Bb|---0---0---0---0----x--------------0---0----0---0-----0---0---0---0------|
F |-5-------5----------------------/2--------2-------2/4------4--------4----|
F |-----------------3------3------------------------------------------------|
Bb|-------------------------------------------------------------------------|
F |-------------------------------------------------------------------------|

     Verse - I     (Guitar One)     
 
F |-----0-------0-------0-------0--------0-------0-------0-------0----------|
Bb|---0---0---0---0---0---0---0---0----0---0---0---0---0---0---0---0--------|
F |-5-------5------------------------2-------2-------0-------0--------------|
F |-----------------3-------3-----------------------------------------------|
Bb|-------------------------------------------------------------------------|
F |-------------------------------------------------------------------------|

F |-----0-------0-------0-------0--------0-------0-------0-------0----------|
Bb|---0---0---0---0---0----------------0---0---0---0---0---0---0---0--------|
F |-5-------5-----------------------/2-------2------2/4------4-------4------|
F |-----------------3-------3-----------------------------------------------|
Bb|-------------------------------------------------------------------------|
F |-------------------------------------------------------------------------|

F |-----0-------0-------0-------0--------0-------0-------0-------0----------|
Bb|---0---0---0---0---0---0---0---0----0---0---0---0---0---0---0---0--------|
F |-5-------5------------------------2-------2-------0-------0--------------|
F |-----------------3-------3-----------------------------------------------|
Bb|-------------------------------------------------------------------------|
F |-------------------------------------------------------------------------|

F |-----0-------0-------0-------0--------0-------0-------0-------0----------|
Bb|---0---0---0---0---0----------------0---0---0---0---0---0---0---0--------|
F |-5-------5-----------------------/2-------2------2/4------4-------4------|
F |-----------------3-------3-----------------------------------------------|
Bb|-------------------------------------------------------------------------|
F |-------------------------------------------------------------------------|

     Pre-Chorus     (Guitar One)

F |-----0-------0-------0-------0-------0-------0-------0-------0-----------|
Bb|---0---0---0---0---0---0---0---0---0---0---0---0---0---0---0---0---------|
F |-0-------0-------0-------0-------0-------0-------0-------0---------------|
F |-------------------------------------------------------------------------|
Bb|-------------------------------------------------------------------------|
F |-------------------------------------------------------------------------|

     Chorus I     (Guitar Two)  
     I miss..     kissed..    you laid..    grave..
F |-----0-----||-----0-----||-----0-----||-----0-----||---------------------|
Bb|-----0-----||-----0-----||-----0-----||-----0-----||---------------------|
F |-----5-----||-----5-----||-----2-----||-----0-----||---------------------|
F |-----5-----||-----3-----||-----2-----||-----5-----||---------------------|
Bb|-----0-----||-----0-----||-----0-----||-----7-----||---------------------|
F |-----------||-----------||-----------||-----------||---------------------|
     I need..    believe..   things were.. this way..
F |-----0-----||-----0-----||-----0-----||-----0~----||---------------------|
Bb|-----0-----||-----0-----||-----0-----||-----0~----||---------------------|
F |-----5-----||-----5-----||-----2-----||-----0~----||---------------------|
F |-----5-----||-----3-----||-----2-----||-----5~----||---------------------|
Bb|-----0-----||-----0-----||-----0-----||-----7~----||---------------------|
F |-----------||-----------||-----------||-----------||---------------------|


     Pre-Verse     (Guitar One)    

F |-----0-------0-------0-------0--------0-------0-------0-------0----------|
Bb|---0---0---0---0---0-------0--------0---0---0---0---0---0---0---0--------|
F |-5-------5------------------------2-------2-------0-------0--------------|
F |-----------------3-------3-----------------------------------------------|
Bb|-------------------------------------------------------------------------|
F |-------------------------------------------------------------------------|

F |-----0-------0-------0-------0-------0-------0-------0-------0-----------|
Bb|---0---0---0---0---0---------------0---0---0---0---0---0---0---0---------|
F |-5-------5-----------------------/2-------2-----2/4------4-------4-------|
F |-----------------3-------3-----------------------------------------------|
Bb|-------------------------------------------------------------------------|
F |-------------------------------------------------------------------------|

     Verse II     (Guitar One)
F |-----0-------0-------0-------0--------0-------0-------0-------0----------|
Bb|---0---0---0---0---0---0---0---0----0---0---0---0---0---0---0---0--------|
F |-5-------5------------------------2-------2-------0-------0--------------|
F |-----------------3-------3-----------------------------------------------|
Bb|-------------------------------------------------------------------------|
F |-------------------------------------------------------------------------|

F |-----0-------0-------0-------0-------0-------0-------0-------0-----------|
Bb|---0---0---0---0---0---------------0---0---0---0---0---0---0---0---------|
F |-5-------5-----------------------/2-------2-----2/4------4-------4-------|
F |-----------------3-------3-----------------------------------------------|
Bb|-------------------------------------------------------------------------|
F |-------------------------------------------------------------------------|

F |-----0-------0-------0-------0--------0-------0-------0-------0----------|
Bb|---0---0---0---0---0---0---0---0----0---0---0---0---0---0---0---0--------|
F |-5-------5------------------------2-------2-------0-------0--------------|
F |-----------------3-------3-----------------------------------------------|
Bb|-------------------------------------------------------------------------|
F |-------------------------------------------------------------------------|

F |-----0-------0-------0-------0-------0-------0-------0-------0-----------|
Bb|---0---0---0---0---0---------------0---0---0---0---0---0---0---0---------|
F |-5-------5-----------------------/2-------2-----2/4------4-------4-------|
F |-----------------3-------3-----------------------------------------------|
Bb|-------------------------------------------------------------------------|
F |-------------------------------------------------------------------------|

     Pre-Chorus     (Guitar One)

F |-----0-------0-------0-------0-------0-------0-------0-------0-----------|
Bb|---0---0---0---0---0---0---0---0---0---0---0---0---0---0---0---0---------|
F |-0-------0-------0-------0-------0-------0-------0-------0---------------|
F |-------------------------------------------------------------------------|
Bb|-------------------------------------------------------------------------|
F |-------------------------------------------------------------------------|

     Chorus II     (Guitar Two)  
     I miss..     kissed..    you laid..    grave..
F |-----0-----||-----0-----||-----0-----||-----0-----||---------------------|
Bb|-----0-----||-----0-----||-----0-----||-----0-----||---------------------|
F |-----5-----||-----5-----||-----2-----||-----0-----||---------------------|
F |-----5-----||-----3-----||-----2-----||-----5-----||---------------------|
Bb|-----0-----||-----0-----||-----0-----||-----7-----||---------------------|
F |-----------||-----------||-----------||-----------||---------------------|
     I need..    believe..   things were.. this way..
F |-----0-----||-----0-----||-----0-----||-----0-----||---------------------|
Bb|-----0-----||-----0-----||-----0-----||-----0-----||---------------------|
F |-----5-----||-----5-----||-----2-----||-----0-----||---------------------|
F |-----5-----||-----3-----||-----2-----||-----5-----||---------------------|
Bb|-----0-----||-----0-----||-----0-----||-----7-----||---------------------|
F |-----------||-----------||-----------||-----------||---------------------|

     I miss..     kissed..    you laid..    grave..
F |-----0-----||-----0-----||-----0-----||-----0-----||---------------------|
Bb|-----0-----||-----0-----||-----0-----||-----0-----||---------------------|
F |-----5-----||-----5-----||-----2-----||-----0-----||---------------------|
F |-----5-----||-----3-----||-----2-----||-----5-----||---------------------|
Bb|-----0-----||-----0-----||-----0-----||-----7-----||---------------------|
F |-----------||-----------||-----------||-----------||---------------------|
     I need..    believe..   things were.. this way..
F |-----0-----||-----0-----||-----0-----||-----0~----||---------------------|
Bb|-----0-----||-----0-----||-----0-----||-----0~----||---------------------|
F |-----5-----||-----5-----||-----2-----||-----0~----||---------------------|
F |-----5-----||-----3-----||-----2-----||-----5~----||---------------------|
Bb|-----0-----||-----0-----||-----0-----||-----7~----||---------------------|
F |-----------||-----------||-----------||-----------||---------------------|


     Pre-Verse/Verse II     (Guitar One)    

F |-----0-------0-------0-------0--------2-------2-------2-------2----------|
Bb|---0---0---0---0---0-------0--------0---0---0---0---0---0---0---0--------|
F |-5-------5------------------------2-------2-------0-------0--------------|
F |-----------------3-------3-----------------------------------------------|
Bb|-------------------------------------------------------------------------|
F |-------------------------------------------------------------------------|

F |-----2-------2-------2-------2-------2-------2-------2-------2-----------|
Bb|---0---0---0---0---0-------0-------0---0---0---0---0---0---0---0~--------|
F |-5-------5-----------------------/2-------2-----2/4------4---------------|
F |-----------------3-------3-----------------------------------------------|
Bb|-------------------------------------------------------------------------|
F |-------------------------------------------------------------------------|

  
     Outro     (Guitar Two)  
  Did nothing..   nothing..    its all..   you're gone..
F |-----0-----||-----0-----||-----0-----||-----0-----||---------------------|
Bb|-----0-----||-----0-----||-----0-----||-----0-----||---------------------|
F |-----5-----||-----5-----||-----2-----||-----0-----||---------------------|
F |-----5-----||-----3-----||-----2-----||-----5-----||---------------------|
Bb|-----0-----||-----0-----||-----0-----||-----7-----||---------------------|
F |-----------||-----------||-----------||-----------||---------------------|
    Your Face..   face on..   it tells..    you will..
F |-----0-----||-----0-----||-----0-----||-----0-----||---------------------|
Bb|-----0-----||-----0-----||-----0-----||-----0-----||---------------------|
F |-----5-----||-----5-----||-----2-----||-----0-----||---------------------|
F |-----5-----||-----3-----||-----2-----||-----5-----||---------------------|
Bb|-----0-----||-----0-----||-----0-----||-----7-----||---------------------|
F |-----------||-----------||-----------||-----------||---------------------|


  Did nothing..   nothing..    its all..   you're gone..
F |-----0-----||-----0-----||-----0-----||-----0-----||---------------------|
Bb|-----0-----||-----0-----||-----0-----||-----0-----||---------------------|
F |-----5-----||-----5-----||-----2-----||-----0-----||---------------------|
F |-----5-----||-----3-----||-----2-----||-----5-----||---------------------|
Bb|-----0-----||-----0-----||-----0-----||-----7-----||---------------------|
F |-----------||-----------||-----------||-----------||---------------------|
    Your Face..   face on..   it tells..     you will..
F |-----0-----||-----0-----||-----0-----||-----0~----||---------------------|
Bb|-----0-----||-----0-----||-----0-----||-----0~----||---------------------|
F |-----5-----||-----5-----||-----2-----||-----0~----||---------------------|
F |-----5-----||-----3-----||-----2-----||-----5~----||---------------------|
Bb|-----0-----||-----0-----||-----0-----||-----7~----||---------------------|
F |-----------||-----------||-----------||-----------||---------------------|

-----Figure out strumming pattern-----

| /  slide up
| \  slide down
| h  hammer-on
| p  pull-off
| ~  vibrato
| +  harmonic
| x  Mute note
=============================================================================





Comments


Popular Jamestown Story tabs & chords
Forget Chords
Forgotten Chords
Goodbye (I'm Sorry) Chords
Goodbye Im Sorry 3 Chords
Head Spin Chords
Dreaming Of This Tabs
Forget 1 Tabs
Goodbye (I'm Sorry) Tabs
Goodbye Im Sorry Intro Tabs
In Loving Memory Tabs


Song lyrics



↑ Back to top | Tablatures and chords are parodies/interpretations of the original songs. You may use it for private study, scholarship, research or language learning purposes only
© 2014 AZChords.com Contact us | Privacy policy | DMCA | Add/correct tabs | Request tabs | Top 50 tabs