» » »

Jamestown Story, I Miss You Tabs (ver.2)

Artists:  A B C D E F G H I J K L M N O P Q R S T U V W X Y Z # 

I Miss You Tabs (ver.2)

Jamestown Story Tabs
Rating:
2/5 (2 votes)
I Miss You lessons Tabs too difficult? Try these video lessons and learn fast
                
Tuning:EADGAbF

F |------0-------0-------0-------0-------0-------0-------0-------0---------|
Ab|----0---0---0---0---0---0---0---0---0---0---0---0---0---0---0---0-------|
G |--3-------3-------------------------------------------------------------|
D |------------------3-------3-------5-------5-------3-------3-------------|
A |------------------------------------------------------------------------|
E |------------------------------------------------------------------------|

F |------0-------0-------0-------0-------0-------0-------0-------0---------|
Ab|----0---0---0---0---0---0---0---0---0---0---0---0---0---0---0---0-------|
G |--3-------3-------------------------------------------------------------|
D |------------------3-------3-------5-------5-------7-------7-------------|
A |------------------------------------------------------------------------|
E |------------------------------------------------------------------------|

F |------0-------0-------0-------0-------0-------0-------0-------0---------|
Ab|----0---0---0---0---0---0---0---0---0---0---0---0---0---0---0---0-------|
G |------------------------------------------------------------------------|
D |7>8-------8-------8-------3-------5-------5-------7-------7-------------|
A |-----------------------------------------------------------=------------|
E |------------------------------------------------------------------------|

and repeat....

This is pretty much it there are a few variations here and there but apart from that this is it.

The Ab is tuned to the 3rd fret on the G string and the F is tuned to the 8th fret on the g string...

Enjoy!!!
            
Submit corrections

comments powered by Disqus
↑ Back to top | Jamestown Story Tabs for I Miss You. Lyrics for acoustic guitar and electric guitar. Tablatures and chords are parodies/interpretations of the original songs. You may use it for private study, scholarship, research or language learning purposes only