» » »

Jamestown Story, I Miss You Tabs (ver.1)

Artists:  A B C D E F G H I J K L M N O P Q R S T U V W X Y Z # 

I Miss You Tabs (ver.1)

Jamestown Story Tabs
 Rating:
3.4/5 (5 votes)
I Miss You lessons Tabs too difficult? Try these video lessons and learn fast
                -------------------------------------------------------------------------------
                             I Miss You – Jamestown Story
-------------------------------------------------------------------------------

Tuning: Standard tuning with a capo on the 2nd fret

Main Chords used:
Gmajor7  Aadd9  Em(add9)  Cadd9
e|--3--|--3----|--3-----|--3--|
B|--3--|--3----|--3-----|--3--|
G|--0--|--0----|--0-----|--0--|
D|--0--|--2----|--2-----|--2--|
A|--2--|--0----|--2-----|--3--|
E|--3--|--0----|--0-----|-----|

The song is in the key of G

Strumming for Chorus – V this means strum down – ^ means strum up

Intro/Verse:
e|-------------------------------------------------------------------|
B|------3-------3-------3-------3-------3-------3-------3-------3----|
G|----0---0---0---0---0---0---0---0---0---0---0---0---0---0---0---0--|
D|--5-------5-----------------------2-------2-------0-------0--------|
A|------------------3-------3----------------------------------------|
E|-------------------------------------------------------------------|

e|---------------------------------------------------------------------|
B|------3-------3-------3-------3-------3-------3---------3-------3----|
G|----0---0---0---0---0---0---0---0---0---0---0---0-----0---0---0---0--|
D|--5-------5-----------------------2-------2-------2/4-------4--------|
A|------------------3-------3------------------------------------------|
E|---------------------------------------------------------------------|

Verse 1:
        Yesterday was full of tears, knowing death has just been here
e|-------------------------------------------------------------------|
B|------3-------3-------3-------3-------3-------3-------3-------3----|
G|----0---0---0---0---0---0---0---0---0---0---0---0---0---0---0---0--|
D|--5-------5-----------------------2-------2-------0-------0--------|
A|------------------3-------3----------------------------------------|
E|-------------------------------------------------------------------|
        All was lost but not forgot, the pain controls my every thought
e|---------------------------------------------------------------------|
B|------3-------3-------3-------3-------3-------3---------3-------3----|
G|----0---0---0---0---0---0---0---0---0---0---0---0-----0---0---0---0--|
D|--5-------5-----------------------2-------2-------2/4-------4--------|
A|------------------3-------3------------------------------------------|
E|---------------------------------------------------------------------|
        A new day's battle has begun, all was lost and nothing's won
e|-------------------------------------------------------------------|
B|------3-------3-------3-------3-------3-------3-------3-------3----|
G|----0---0---0---0---0---0---0---0---0---0---0---0---0---0---0---0--|
D|--5-------5-----------------------2-------2-------0-------0--------|
A|------------------3-------3----------------------------------------|
E|-------------------------------------------------------------------|
       I can't wait to see the day, when the tears all go away....
e|---------------------------------------------------------------------|
B|------3-------3-------3-------3-------3-------3---------3-------3----|
G|----0---0---0---0---0---0---0---0---0---0---0---0-----0---0---0---0--|
D|--5-------5-----------------------2-------2-------2/4-------4--------|
A|------------------3-------3------------------------------------------|
E|---------------------------------------------------------------------|

e|-------------------------------------------------------------------|
B|------3-------3-------3-------3-------3-------3-------3-------3----|
G|----0---0---0---0---0---0---0---0---0---0---0---0---0---0---0---0--|
D|--5-------5-------5-------5-------5-------5-------5-------5--------|
A|-------------------------------------------------------------------|
E|-------------------------------------------------------------------|

Chorus:

I miss you, I kissed you, when we laid you in your grave
    G   G  Aadd9     Em   Cadd9
    ^V^ VV ^ V^V ^V^ VV ^ ^V        
e|--333 33-3-333-333-33-3-33--|
B|--333-33-3-333-333-33-3-33--|
G|--000-00-0-000-000-00-0-00--|
D|--000-00-0h222-000-22-0h22--|
A|------22-0-000-000-22-0h33--|
E|------33-0------------------|

I need you to believe you, things were meant to be this way...
    G  Aadd9     Em   Cadd9
    VV ^ V^V ^V^ VV ^ ^V        
e|--33-3-333-333-33-3-33--|
B|--33-3-333-333-33-3-33--|
G|--00-0-000-000-00-0-00--|
D|--00-0h222-000-22-0h22--|
A|--22-0-000-000-22-0h33--|
E|--33-0------------------|

Verse 2:
        Today came with shattered dreams, everything's not what it seems
e|-------------------------------------------------------------------|
B|------3-------3-------3-------3-------3-------3-------3-------3----|
G|----0---0---0---0---0---0---0---0---0---0---0---0---0---0---0---0--|
D|--5-------5-----------------------2-------2-------0-------0--------|
A|------------------3-------3----------------------------------------|
E|-------------------------------------------------------------------|
        Don't think death won't come get you, cause it will life's misconstrued
e|---------------------------------------------------------------------|
B|------3-------3-------3-------3-------3-------3---------3-------3----|
G|----0---0---0---0---0---0---0---0---0---0---0---0-----0---0---0---0--|
D|--5-------5-----------------------2-------2-------2/4-------4--------|
A|------------------3-------3------------------------------------------|
E|---------------------------------------------------------------------|


        Though my battle's just begun, I'm dropping arms and going to run
e|-------------------------------------------------------------------|
B|------3-------3-------3-------3-------3-------3-------3-------3----|
G|----0---0---0---0---0---0---0---0---0---0---0---0---0---0---0---0--|
D|--5-------5-----------------------2-------2-------0-------0--------|
A|------------------3-------3----------------------------------------|
E|-------------------------------------------------------------------|
        I can't wait to see the day, when these painful tears all go
e|---------------------------------------------------------------------|
B|------3-------3-------3-------3-------3-------3---------3-------3----|
G|----0---0---0---0---0---0---0---0---0---0---0---0-----0---0---0---0--|
D|--5-------5-----------------------2-------2-------2/4-------4--------|
A|------------------3-------3------------------------------------------|
E|---------------------------------------------------------------------|

Away....
e|-------------------------------------------------------------------|
B|------3-------3-------3-------3-------3-------3-------3-------3----|
G|----0---0---0---0---0---0---0---0---0---0---0---0---0---0---0---0--|
D|--5-------5-------5-------5-------5-------5-------5-------5--------|
A|-------------------------------------------------------------------|
E|-------------------------------------------------------------------|

Chorus:

I miss you, I kissed you, when we laid you in your grave
    G   G  Aadd9     Em   Cadd9
    ^V^ VV ^ V^V ^V^ VV ^ ^V        
e|--333 33-3-333-333-33-3-33--|
B|--333-33-3-333-333-33-3-33--|
G|--000-00-0-000-000-00-0-00--|
D|--000-00-0h222-000-22-0h22--|
A|------22-0-000-000-22-0h33--|
E|------33-0------------------|

I need you to believe you, things were meant to be this way...
    G  Aadd9     Em   Cadd9
    VV ^ V^V ^V^ VV ^ ^V        
e|--33-3-333-333-33-3-33--|
B|--33-3-333-333-33-3-33--|
G|--00-0-000-000-00-0-00--|
D|--00-0h222-000-22-0h22--|
A|--22-0-000-000-22-0h33--|
E|--33-0------------------|

I miss you, I kissed you, when we laid you in your grave
    G   G  Aadd9     Em   Cadd9
    ^V^ VV ^ V^V ^V^ VV ^ ^V        
e|--333 33-3-333-333-33-3-33--|
B|--333-33-3-333-333-33-3-33--|
G|--000-00-0-000-000-00-0-00--|
D|--000-00-0h222-000-22-0h22--|
A|------22-0-000-000-22-0h33--|
E|------33-0------------------|

I need you to believe you, things were meant to be this way...
    G  Aadd9     Em   Cadd9
    VV ^ V^V ^V^ VV ^ ^V        
e|--33-3-333-333-33-3-33--|
B|--33-3-333-333-33-3-33--|
G|--00-0-000-000-00-0-00--|
D|--00-0h222-000-22-0h22--|
A|--22-0-000-000-22-0h33--|
E|--33-0------------------|

Intro:
e|-------------------------------------------------------------------|
B|------3-------3-------3-------3-------3-------3-------3-------3----|
G|----0---0---0---0---0---0---0---0---0---0---0---0---0---0---0---0--|
D|--5-------5-----------------------2-------2-------0-------0--------|
A|------------------3-------3----------------------------------------|
E|-------------------------------------------------------------------|

e|---------------------------------------------------------------------|
B|------3-------3-------3-------3-------3-------3---------3-------3----|
G|----0---0---0---0---0---0---0---0---0---0---0---0-----0---0---0---0--|
D|--5-------5-----------------------2-------2-------2/4-------4--------|
A|------------------3-------3------------------------------------------|
E|---------------------------------------------------------------------|


Outro: Same Chords as the Chorus – just listen for the strumming pattern.

Gmajor7, Aadd9, Em(add9) & Cadd9

I did nothing at all, it's all my fault you’re gone
Your face on my wall, it tells it all, you will live on...

I did nothing at all, it's all my fault you’re gone
Your face on my wall, it tells it all, you will live on...

------------------------------------------------------------------------
| /  slide up
| \  slide down
| h  hammer-on
| p  pull-off
| ~  vibrato
| +  harmonic
------------------------------------------------------------------------

Lyrics:
Verse 1:
Yesterday was full of tears, knowing death has just been here
All was lost but not forgot, the pain controls my every thought
A new day's battle has begun, all was lost and nothing's won
I can't wait to see the day, when the tears all go away....

Chorus:
I miss you, I kissed you, when we laid you in your grave
I need you to believe you, things were meant to be this way...

Verse 2:
Today came with shattered dreams, everything's not what it seems
Don't think death won't come get you, cause it will life's misconstrued
Though my battle's just begun, I'm dropping arms and going to run
I can't wait to see the day, when these painful tears all go
away....

Chorus:
I miss you, I kissed you, when we laid you in your grave
I need you to believe you, things were meant to be this way...

I miss you, I kissed you, when we laid you in your grave
I need you to believe you, things were meant to be this way...

Outro: 
I did nothing at all, it's all my fault you’re gone
Your face on my wall, it tells it all, you will live on...

I did nothing at all, it's all my fault you’re gone
Your face on my wall, it tells it all, you will live on...
            
Submit corrections

comments powered by Disqus
↑ Back to top | Jamestown Story Tabs for I Miss You. Lyrics for acoustic guitar and electric guitar. Tablatures and chords are parodies/interpretations of the original songs. You may use it for private study, scholarship, research or language learning purposes only