» » »

James Brown, Im A Soul Man Bass tabs (ver.2)

Artists:  A B C D E F G H I J K L M N O P Q R S T U V W X Y Z # 

Im A Soul Man Bass tabs (ver.2)

James Brown Tabs
Rating:
0/5 (0 votes)
Im A Soul Man lessons Tabs too difficult? Try these video lessons and learn fast
                Band: James Brown
Song title: I'm a soul man
Type: Bass tab
What part: some of it
Difficulty: Intermediate
Tuning: Standard


ok i'v seen the other bass tabs for this and i am 100% correct that this tab is 
correct but i havn't put down the bridge so i will get to that

Intro

G|-----------------------|
D|-----------------------|
A|-7~--7-5~--5-----------|
E|-------------3~--3-5-9-|

Verse

G|----------------|
D|-22-------------|
A|----44-2-00-2-4-|
E|----------------|

chorus
  1                           2            1
G|---------------------------|-99999-7----|----------------------------|
D|-22222222-00000000-22222222|---------9-7|-22222222-00000000-22222222-|
A|---------------------------|------------|----------------------------|
E|---------------------------|------------|----------------------------|
  3
G|--------|
D|--------|
A|-0-4-7--|
E|-------7|

i'll post up the rest of the song when i learn it
            

comments powered by Disqus
↑ Back to top | James Brown Bass for Im A Soul Man. Lyrics for acoustic guitar and electric guitar. Tablatures and chords are parodies/interpretations of the original songs. You may use it for private study, scholarship, research or language learning purposes only