» » »

Im A Soul Man Tabs (ver.1)

Artists:  A B C D E F G H I J K L M N O P Q R S T U V W X Y Z # 

Im A Soul Man Tabs (ver.1)

James Brown
Rating:
0/5 (0 votes)

Hard to play? Try these video lessons and learn fast.
                James Brown
I'm a soul man



Intro
e------7---77---5-----10--10----12--12/14-----|
b---------------------------------------------|
g--6/7--6/7--6/7--6/7----7---7/9--9-----------|
d---------------------------------------------|
a---------------------------------------------|
e---------------------------------------------|

Verse 1
e--x-x--x--x--x---x--x-----|
b--8-8--12-12-12--10-8-----|
g--7-7--12-12-12--9--7-----|  this is played until the chorus
d--x-x--x--x--x---x--x-----|
a--------------------------|
e--------------------------|

chorus 1
e-----7----5-------13-13-13-13b--------7-----5--|
b-----------------------------------------------|
g--6/7--6/7-------------------------6/7---6/7---|    there isn't so much
d-----------------------------------------------|    guitar in the chorus.
a-----------------------------------------------|
e-----------------------------------------------|

Verse 2
e--x-x--x--x--x---x---x-------------|
b--8-8--12-12-12--10--8-------------|
g--7-7--12-12-12--9---7-------------|   plays until the next chorus
d--x-x--x--x--x---x---x-------------|
a-----------------------------------|
e-----------------------------------|

Chorus 2
e-----7----5----13-13-13-13b-------7----5-----------|
b---------------------------------------------------|
g--6/7---6/7--------------------6/7--6/7------------|
d---------------------------------------------------|
a---------------------------------------------------|
e---------------------------------------------------|

Verse 3
e--x-x--x--x--x---x---x--------------------|
b--8-8--12-12-12--10--8--------------------|
g--7-7--12-12-12--9---7--------------------|
d--x-x--x--x--x---x---x--------------------|
a------------------------------------------|
e------------------------------------------|

Chorus 3
e-----7----5-----13b-13b-13b----------7--7----5-------|
b-----------------------------------------------------|
g--6/7--6/7------------------------6/7--7--6/7--------|
d-----------------------------------------------------|
a-----------------------------------------------------|
e-----------------------------------------------------|

Stick
e--x-x--x-x--x-x--x-x--x--x---x--x---x--x---x--x----x--x--x--x--x--x--x---|
b--9-9--9-9--9-9--9-9--11-11--11-11--11-11--11-11---13-13-13-13-13-13-13--|
g--8-8--8-8--8-8--8-8--10-10--10-10--10-10--10-10---13-13-13-13-13-13-13--|
d--x-x--x-x--x-x--x-x--x--x---x--x---x--x---x--x----x--x--x--x--x--x--x---|
a-------------------------------------------------------------------------|
e-------------------------------------------------------------------------|

Stick
e--7/8-----8-8--6-6---11--11---13---13/15--------------|
b------------------------------------------------------|
g--7/8--7/8----8----8---8----10--10--------------------|
d------------------------------------------------------|
a------------------------------------------------------|
e------------------------------------------------------|

Verse 3
e--x-x--x--x--x---x---x------|
b--9-9--13-13-13--11--9------|
g--8-8--13-13-13--10--8------|
d--x-x--x--x--x---x---x------|          play until ending of song
a----------------------------|
e----------------------------|


Thats it. took me a wile to figure out and i don't think
this is 100% accurate, but it's the best i can come up with.
remember to listen to the song carefully
By the way, some funk skills are needed.
            
Hard to play? Try these video lessons and learn fast. | Correct




comments powered by Disqus
↑ Back to top | Tablatures and chords are parodies/interpretations of the original songs. You may use it for private study, scholarship, research or language learning purposes only