» » »

James Brown, Sex Machine Bass tabs (ver.1)

Artists:  A B C D E F G H I J K L M N O P Q R S T U V W X Y Z # 

Sex Machine Bass tabs (ver.1)

James Brown Tabs
 Rating:
3.4/5 (5 votes)
Sex Machine lessons Tabs too difficult? Try these video lessons and learn fast
                Played by Bootsy Collins, fantastic funk bassline.
i know its 100% correct; its from a bass book, so please rate it

X is a deadnote, play muted.
Tabbing isnt great for rhythm, so you'll have to pick it up yourselves.

cheers

in EbMajor

G|-----------------8-------8------------------------------|
D|--------------------------------------------------------|
A|--66666666---6------4-6------4-6-6-----X----------------|
E|--------------------------------------------------------|

G|------8----------8--------------------------------------|
D|--------------------------------------------------------|
A|-6-------4-6-6------4-6------4--------------------------|
E|-------------------------3-6----------------------------|

G|------8------8--------------8---------------------------|
D|--------------------------------------------------------|
A|--6------4-6-----4-6-6---6------------------------------|
E|--------------------------------------------------------|

G|--------8---------8-------------------------------------|
D|--------------------------------------------------------|
A|---6-------4-6------------4-6---------4-6---------------|
E|--------------------------------X-3-6-------------------|


PLAY THIS 4 TIMES OVER

Tom Carroll
            
Submit corrections

comments powered by Disqus
↑ Back to top | James Brown Bass for Sex Machine. Lyrics for acoustic guitar and electric guitar. Tablatures and chords are parodies/interpretations of the original songs. You may use it for private study, scholarship, research or language learning purposes only