» » »

Jam, Down In The Tube Station At The Midnight Bass tabs (ver.1)

Artists:  A B C D E F G H I J K L M N O P Q R S T U V W X Y Z # 

Down In The Tube Station At The Midnight Bass tabs (ver.1)

Jam Tabs
 Rating:
4/5 (4 votes)
Down In The Tube Station At The Midnight lessons Tabs too difficult? Try these video lessons and learn fast
1
                
Intro

g|------------5-7--------------5-5h7p5----------
d|-----5-7--7-----------5-7---7-------h7--------
a|-0-7----5---------0-7-----5-------------------
e|----------------------------------------------

Verse

g|------------(12)------------------------5-7------------------
d|-----5-7-------(12)-----------5-7------7---------------------
a|-0-7-----5--------(12)-----0-7--------5----------------------
e|---------------------------------------------------3-3----3-3


g|------------5-5h7p5-------------------5-7--------------------
d|-----5-7---7-------h7---------5-7---7------------------------
a|-0-7-----5-----------------0-7---5---------------------------
e|---------------------------------------------------3-3----3-3

Bridge

g|--------------------------------------------------------------------------------
d|----------------------2-2-3-3-4-4-----------------------2-2-3-3-4-4-------------    X 2
a|-----2-2-3-3-4-4--5-5------------------2-2-3-3-4-4--5-5-------------------------
e|-5-5-------------------------------5-5--------------------------------3-3----3-3

Chorus

g|--------------------------------------------------------------------------------
d|----------------0--------2--------4---------------------------------------------    X ?
a|-----2------2-2---2--3-3---3--5-5---5-------------------------------------------
e|-3-3---3------------------------------------------------------------------------


Thats all the parts anyway, just figure out when you play them its easy.
            
Submit corrections

comments powered by Disqus
↑ Back to top | Jam Bass for Down In The Tube Station At The Midnight. Lyrics for acoustic guitar and electric guitar. 1 Tablatures and chords are parodies/interpretations of the original songs. You may use it for private study, scholarship, research or language learning purposes only