» » »

Jam, Down In The Tube Station At The Midnight Bass tabs (ver.2)

Artists:  A B C D E F G H I J K L M N O P Q R S T U V W X Y Z # 

Down In The Tube Station At The Midnight Bass tabs (ver.2)

Jam Tabs
 Rating:
4/5 (4 votes)
Down In The Tube Station At The Midnight lessons Tabs too difficult? Try these video lessons and learn fast
1
                "(1)
Riff 1
G-------------5-7------------5-7---------
D------5-7--7----------5-7--7------------
A----7----5----------7----5--------------
E--5---------------5-------------3-3-3-3- (X2)

Riff 2
G----------------------------------------------
D----------00223344----------00223344----------
A--00223344---------00223344-------------------
E--------------------------------------3-3-3-3- (X2)

Chours Riff
G------------------------------------------
D------------------------------------------
A------------2-2-2-22222-33333333-55555555-
E--3-3--3-3--------------------------------

Do this 3/4 times!
"            
Submit corrections

comments powered by Disqus
↑ Back to top | Jam Bass for Down In The Tube Station At The Midnight. Lyrics for acoustic guitar and electric guitar. 1 Tablatures and chords are parodies/interpretations of the original songs. You may use it for private study, scholarship, research or language learning purposes only