>
 >
 >
All Mod Cons 1

All Mod Cons 1 Bass Tabs

Jam - All Mod Cons 1 chords, tabs, tablatures, lyrics

Guitar lessons | Add/correct | Request | Top 50 tabs Artists:  A B C D E F G H I J K L M N O P Q R S T U V W X Y Z 0-9

All Mod Cons 1 Bass Tabs – Jam

CD, Sheet music, Poster

Do you like All Mod Cons 1? Share with your friends now
Bass TabsBass Tabs v2ChordsTabsUkulele
-------------------------------------------------------------------------------
			    ALL MOD CONS - THE JAM
-------------------------------------------------------------------------------


Tuning: EADG (normal)

Sounds best if you play it with a pick.

At the "artistic freedom" bit i can't tell whether or not the bass is playing but 
I'm pretty sure it's correct.

G|------------------------------------|---------------------------------------|
D|------------------------------------|---------------------------------------|
A|------------------------------------|---------------------------------------|
E|------------------------------------|---------------------------------------|
  One     Two    Three   Four...       (guitar intro)

G|------------------------------------|---------------------------------------|
D|------------------------------------|---------------------------------------|
A|------------------------------------|---------------------------------------|
E|------------------------------------|---------------------------------------|


G|------------------------------------|---------------------------------------|
D|------------------------------------|---------------------------------------|
A|------------------------------------|-------5--5--5--4----------------------|
E|0----------5------------0---3---5---|-----------------------0---3---5-------|


G|------------------------------------|---------------------------------------|
D|------------------------------------|---------------------------------------|
A|--------5--5--5--4------------------|-------5--5--5--4----------------------|
E|------------------------0---3---5---|-----------------------0---3---5-------|

G|------------------------------------|---------------------------------------|
D|------------------------------------|---------------------------------------|
A|------------------------------------|-------5--5--5--4----------------------|
E|0----------5------------0---3---5---|-----------------------0---3---5-------|
					      Seen you before

G|------------------------------------|---------------------------------------|
D|------------------------------------|---------------------------------------|
A|--------5--5--5--4------------------|-------5--5--5--4----------------------|
E|------------------------0---3---5---|-----------------------0---3---5-------|
         I know your sort		     You think the world awaits your

G|------------------------------------|---------------------------------------|
D|------------------------------------|---------------------------------------|
A|------------------------------------|-------5--5--5--4----------------------|
E|0----------5------------0---3---5---|-----------------------0---3---5-------|
  Every     breath                           You'll be my friend

G|------------------------------------|---------------------------------------|
D|------------------------------------|---------------------------------------|
A|--------5--5--5--4------------------|-------5--5--5--4----------------------|
E|------------------------0---3---5---|-----------------------0---3---5-------|
         Or so you say                       You help me out when the

G|------------------------------------|---------------------------------------|
D|------------------------------------|---------------------------------------|
A|------------------------------------|-------7--7--7--6----------------------|
E|0----------5------------0---3---5---|-----------------------0---5---7-------|
  Time    comes                               And all the time

G|------------------------------------|---------------------------------------|
D|------------------------------------|---------------------------------------|
A|--------7--7--7--6------------------|---------------------------------------|
E|------------------------0---5---7---|-2---2---2---2---2---2---2---2---2-----|
          We're getting rich                You   hang   around   to

G|------------------------------------|---------------------------------------|
D|------------------------------------|---------------------------------------|
A|-2---2---2---2---2---2---2---2---2--|-------7--7--7--6----------------------|
E|------------------------------------|-----------------------0---5---7-------|
   help   me   out                           But when we're skint

G|------------------------------------|---------------------------------------|
D|------------------------------------|---------------------------------------|
A|--------7--7--7--6------------------|---------------------------------------|
E|------------------------0---5---7---|-2---2---2---2---2---2---2---2---2-----|
          oh god forbid!                     You   drop   us   like

G|------------------------------------|---------------------------------------|
D|--------2---------------------------|---------------------------------------|
A|--2---------------------------------|---------------------------------------|
E|------------------------------------|---------------------------------------|
    hot bricks!

Bass solo

G|------------------------------------|---------------------------------------|
D|------------------------------------|---------------------------------------|
A|-5----5----5----4-------------------|-5----5----5----4----------------------|
E|---------------------0----3----5----|---------------------0----3----5-------|

G|------------------------------------|---------------------------------------|
D|------------------------------------|---------------------------------------|
A|-5----5----5----4-------------------|---------------------------------------|
E|---------------------0----3----5----|-0--------5----------0----3----5-------|

G|------------------------------------|---------------------------------------|
D|------------------------------------|---------------------------------------|
A|--------5--5--5--4------------------|-------5--5--5--4----------------------|
E|------------------------0---3---5---|-----------------------0---3---5-------|

G|------------------------------------|---------------------------------------|
D|------------------------------------|---------------------------------------|
A|--------5--5--5--4------------------|---------------------------------------|
E|------------------------0---3---5---|-0--------5----------0----3----5-------|


G|------------------------------------|---------------------------------------|
D|------------------------------------|---------------------------------------|
A|----------5--5----------------------|--------5---5--------------------------|
E|------------------------------------|---------------------------------------|
         Artistic Freedom                     Do what you want               

G|------------------------------------|---------------------------------------|
D|------------------------------------|---------------------------------------|
A|-------5------5---------------------|---------------------------------------|
E|------------------------------------|--0-----------5---------0----3----5----|
         But just make sure that the     Money ain't gone

G|------------------------------------|---------------------------------------|
D|------------------------------------|---------------------------------------|
A|--------5--5--5--4------------------|-------5--5--5--4----------------------|
E|------------------------0---3---5---|-----------------------0---3---5-------|
         I tell you what		     I've got you sussed

G|------------------------------------|---------------------------------------|
D|------------------------------------|---------------------------------------|
A|--------5--5--5--4------------------|---------------------------------------|
E|------------------------0---3---5---|--0------5-------------0----3----5-----|
         You waste my time when my       Time comes

G|------------------------------------|---------------------------------------|
D|------------------------------------|---------------------------------------|
A|--------5--5--5--4------------------|---------------------------------------|
E|------------------------0---3---5---|--0------5-------------0----3----5-----|
         You waste my time when my       Time comes

G|------------------------------------|---------------------------------------|
D|------------------------------------|---------------------------------------|
A|--------5--5--5--4------------------|---------------------------------------|
E|------------------------0---3---5---|--0------------------------------------|
         You waste my time when my       Ti.........hi.........hime.....

G|------------------------------------|---------------------------------------|
D|------------------------------------|---------------------------------------|
A|------------------------------------|---------------------------------------|
E|-5----------------------------------|---------------------------------------|
   comes.....


| /  slide up
| \  slide down
| h  hammer-on
| p  pull-off
| ~  vibrato
| +  harmonic
| x  Mute note
===============================================================================





Comments


Popular Jam tabs & chords
Girl On The Phone Bass Tabs
Monday Chords
Precious Chords
David Watts Intro Tabs
Dreams Of Children 1 Tabs
News Of The World 1 Tabs
Time For Truth Tabs
London Traffic Ukulele
The Night Ukulele
To Be-someone Ukulele


Song lyrics



↑ Back to top | Tablatures and chords are parodies/interpretations of the original songs. You may use it for private study, scholarship, research or language learning purposes only
© 2014 AZChords.com Contact us | Privacy policy | DMCA | Add/correct tabs | Request tabs | Top 50 tabs