» » »

Jam, All Mod Cons Bass tabs (ver.1)

Artists:  A B C D E F G H I J K L M N O P Q R S T U V W X Y Z # 

All Mod Cons Bass tabs (ver.1)

Jam Tabs
 Rating:
4.2/5 (5 votes)
All Mod Cons lessons Tabs too difficult? Try these video lessons and learn fast
                
Intro:

   G|-----------------|-----------------|
   D|-----------------|-----------------|
   A|-----------------|-----------------|
   E|-----------------|-----------------|

   G|-----------------|-----------------|
   D|-----------------|-----------------|
   A|-----------------|-----------------|
   E|-----------------|-----------3-5---|

Verse 1:

   G|-----------------|     |-----------------|
   D|-----------------| X3  |-----------------| X1
   A|-5-5-0-----------|     |-----------------|
   E|-------5-5-3-5---|     |-----------3-5---|

Verse 2:

   G|-----------------|     |-----------------|
   D|-----------------| X3  |-----------------| X1
   A|-5-5-0-----------|     |-----------------|
   E|-------5-5-3-5---|     |-----------3-5---|
      Seen....before
      I.......sort
      You.........your......every breath

Verse 3:

   G|-----------------|     |-----------------|
   D|-----------------| X3  |-----------------| X1
   A|-5-5-0-----------|     |-----------------|
   E|-------5-5-3-5---|     |-----------3-5---|
      You'll..friend
      Or......say
      You'll......the.........time comes

Interlude:

   G|-----------------|     |-----------------|-----------------|
   D|-----------------| X2  |-----------------|-----------------| X1
   A|-2-2-2-2-2-2-2-2-|     |-----------------|-5-----5-----5---|
   E|-----------------|     |-5-----5-----5---|-----------------| 
      And........time
      We're......rich.........you.....................out

   G|-----------------|     |-----------------|-----------------|
   D|-----------------| X2  |-----------------|-----------------| X1
   A|-2-2-2-2-2-2-2-2-|     |-----------------|-5-----7---------|
   E|-----------------|     |-5-----5-----5---|-----------------| 
      But.......skint
      Oh.......forbid.........you.....................bricks

Bass solo:

   G|-----------------|
   D|-----------------| X4
   A|-5-5-0-----------|
   E|-------5-5-3-5---|

Verse 4:

   G|-----------------|     |-----------------|
   D|-----------------| X3  |-----------------| X1
   A|-5-5-0-----------|     |-----------------|
   E|-------5-5-3-5---|     |-----------3-5---|

Verse 5:

   G|-----------------|     |-----------------|
   D|-----------------| X3  |-----------------| X1
   A|-----------------|     |-----------------|
   E|-----------------|     |-----------3-5---|
      Artistic freedom
      Do.........want
      But.........the........money..gone

Verse 6:

   G|-----------------|     |-----------------|
   D|-----------------| X3  |-----------------| X1
   A|-5-5-0-----------|     |-----------------|
   E|-------5-5-3-5---|     |-----------3-5---|
      I'll....what
      I.......sussed
      You'll.......my.........time comes

Verse 7:

   G|-----------------|     |-----------------|
   D|-----------------| X1  |-----------------| X1
   A|-5-5-0-----------|     |-----------------|
   E|-------5-5-3-5---|     |-----------3-5---|
      You'll.......my.........time comes

Outro:

   G|-----------------|     |-----------------|
   D|-----------------| X1  |-----------------| X1
   A|-5-5-0-----------|     |-3-------3---5---|
   E|-------5-5-3-5---|     |-----5-----------|
      You'll.......my.........time comes
            
Submit corrections

comments powered by Disqus
↑ Back to top | Jam Bass for All Mod Cons. Lyrics for acoustic guitar and electric guitar. Tablatures and chords are parodies/interpretations of the original songs. You may use it for private study, scholarship, research or language learning purposes only