» » »

Bikhra Hon Main 2 Tabs

Artists:  A B C D E F G H I J K L M N O P Q R S T U V W X Y Z # 

Bikhra Hon Main 2 Tabs

(ver. 3)
Jal Tabs
 Rating:
4.2/5 (5 votes)
    Bikhra Hon Main lessons Tabs too difficult? Try these video lessons and learn fast
                Bikhra Hoon Main

Artist : Jal

About the song : This is the modified version of Aadat. A beautiful song -
Gohar is a really talented musician i believe. The songs pretty easy

to play.

Chords:
C#    - 446654
C#m   - 446644
Bsus2 - 224422
A     - 002220
A'    - 00222x (this might not be a real chord but this is what works in the song)
Intro:
I'd say Do it with 2 guitars. If not, just do guitar 1. The sequence of tabs of
both guitars is in order. Play according to the order.

Guitar 1:
        C#                         A
e-------------------------------------0-----------------|
B---------5-------------------------2---2---------------|
G-6---6------6--------------------2-------2-------------|Repeat this until
D-------6--6--------------------2-----------2-----------|Farhan is done
A---4---------4---------------0-------------------------|with the singing.
E-------------------------------------------------------|

Guitar 2:
e-4---------------------5-4--0--------------------------| Listen to the
B-4-----------------4-5------2-------------2----4-4h5-2-|0song. You'll know.
G-6--------------------------2--------------------------|
D-6--------------------------2--------------------------|
A-4--------------------------c--------------------------|
E-4--------------------------c--------------------------|


Here comes pre-verse part:

Guitar 1:

There's nothing big for this guitar here. Just mute the strings according to the rythm.
If you dont understand what muting is - it means to

strum while lightly putting ur fingers on the strings to stop them from vibrating and
playing a note. Play xxxxxx.

Guitar 2:

e--------------------------------------------------------|
B--------------------------------------------------------|
G--------------------------------------------------------|
D--------------------------------------------------------|
A--6-7-6-7-7-7-6-7-6-7-6-7-7-7-6--9-9-9-9-9--------------|
E--------------------------------------------------------|

This part is not so easy. You will have to to do some quick alternate picking on this string.
Requires a lot of practice. Listen to the song

for the rythm

Solo:
This is my favourite part.. I couldnt find tabs for the end of the solo. Its all the 
as
aadat except the end. I did it on my own then.

Guitar 1:
e45444--------------------------45444--7-9-7-9h11--9s7-77-7s5--5h7-7-5-4h5-4----------------------|
B-----75444-454-2-4h5--5h7-5-4----------------------------------------------7-4h5-4---------------|
G-----------------------------------------------------------------------------------6-4-6-4-------|
D-------------------------------------------------------------------------------------------6-4-6-|
A-------------------------------------------------------------------------------------------------|
E-------------------------------------------------------------------------------------------------|

Guitar 2:

Guitar can go about the same old aadat rythm playing C#m, Bsus2 and A

Verse:
One of the guitars can have some rest over here. But you can make it more interesting.

Guitar 1:
C#m
Mushkilain Jab bhi aa
Bsus2
Jaaien gi... dard..
A
Hadd say guzar jaye
Bsus2
gaa..

Do the same for the rest.

Guitar 2:
You can do the following thing with the respective chord which is being played
       C#m              Bsus2                     A              Bsus2
e--------4-------------------2--------------------0-------------------2---------|
B--------4-------------------2--------------------2-------------------2---------|
G------6-----6-------------4---4----------------2---2---------------4---4-------|
D----6---------6---------4-------4------------2-------2-----------4------4------|
A--4------------4------2----------4---------0----------0--------2----------2----|
E-------------------------------------------------------------------------------|

There's a lot of ways you can make it interesting. Or keep the Guitar 2 silent.

Chorus:

C#m
Abb to aadat si hai mujh
Bsus2
ko.. aisay jee..
A           Bsus2
nay.. main

Some goes for the "hay haaaaaaaaaay" part.

Post chorus:
C#m
AAAAAAAAAAAAAAAaaaaaaaaaaaaaaaa aaaaaaaaaaaaaaaaa
C#m         A                                Bsus2
AAAAAAAaaaaaaaaaaaaaaaaaaaaaa aaaaaaaaaaaa

And then the part with no vocals goes:

C#m - C#
C#m - C#

A'(00222x) - A(002220)
A'(00222x) - A(002220)


Verse 2:
This is the same as Verse 1. Its pretty easy to figure it out. Just listen to the rythm 
the song.

Outro:
       C#m              Bsus2                     A              Bsus2      C#m
e--------4-------------------2---------------------0------------------------4----|
B--------4-------------------2--------------------2-2-----------------------4----|
G------6-----6-------------4---4----------------2----2---------------4------6----|
D----6---------6---------4-------4------------2--------2-----------4--4-----6----|
A--4------------4------2----------4---------0-----------0--------2----------4----|
E---------------------------------------------------------------------------4----|

This is it. Pretty easy, isnt it?


N.B

This tablaiture is the personal interpretation of the author. It has nothing to do with 
artists.


Fahad Yar Khan.
            
Submit corrections

↑ Back to top | Jal Tabs for Bikhra Hon Main. Lyrics for acoustic guitar and electric guitar. Tablatures and chords are parodies/interpretations of the original songs. You may use it for private study, scholarship, research or language learning purposes only