>
 >
 >
Bikhra Hon Main 1

Bikhra Hon Main 1 Guitar Tabs

Jal - Bikhra Hon Main 1 chords, tabs, tablatures, lyrics

Guitar lessons | Add/correct | Request | Top 50 tabs Artists:  A B C D E F G H I J K L M N O P Q R S T U V W X Y Z 0-9

Bikhra Hon Main 1 Guitar Tabs – Jal

CD, Sheet music, Poster

Do you like Bikhra Hon Main 1? Share with your friends now
TabsTabs v2Tabs v3
(guitar 1 is an acoustic)
(guitar 2 is an acoustic with it's strummin same as in aadat)
(guitar 3 is an electric with slight distortion)


guitar 1 (finger picking)
guitar 2 (plucking with pik)

guitar 1
e|----------0--------|
B|------------0------|
G|------6-------6----|
D|----6---6-------6--|
A|--4----------------|
E|-------------------|

guitar 2
e|-----------------------------------5-4----|
B|-------------------------------4-5-----7--|
G|------------------------------------------|
D|------------------------------------------|
A|------------------------------------------|
E|------------------------------------------|

guitar 1
e|----------0--------|
B|------------0------|
G|------2-------2----|
D|----2---2-------2--|
A|--0----------------|
E|-------------------|

guitar 2
e|-----------------------------------|
B|----------------2-4-4h5-4-2-0------|
G|------------------------------2-1--|
D|-----------------------------------|
A|-----------------------------------|
E|-----------------------------------|

this is played till the end of the verse (ie. "meri chahat adhuri hai")
however..the last time it stops after the first figure of guitar 1


n then this on guitar 1
B|--4s555455555754--| (4X)

guitar 1
e|--xxxxx-xxxxx-xxxxx-xxxxxxxx--|
B|--xxxxx-xxxxx-xxxxx-xxxxxxxx--|
G|--xxxxx-xxxxx-xxxxx-xxxxxxxx--|
D|--xxxxx-xxxxx-xxxxx-xxxxxxxx--|     (4X)
A|--77767-77767-77767-79999767--|
E|--xxxxx-xxxxx-xxxxx-xxxxxxxx--|


solo on guitar 3
e|--4-5-4-444-----------------------------------|
B|------------7-5-4-44-44-4-5-4-2-4s5-5s7--5-4--|
G|----------------------------------------------|
D|----------------------------------------------|
A|----------------------------------------------|
E|----------------------------------------------|

e|--4-5-4-444-7-9-7-9s11-9-7-77-5-5s7-5-4h5p4----------------------|
B|--------------------------------------------5-7-5-4--------------|
G|----------------------------------------------------6-4----------|
D|--------------------------------------------------------7-6-4-6--|
A|-----------------------------------------------------------------|
E|-----------------------------------------------------------------|



now comes the next verse:

    mushkilain.......ain    gi
guitar 1
e|--------4----7p4-------4----7p4--|   
B|----5--------------5-------------|
G|--6---6----6-----6---6----6------|
D|---------------------------------|
A|---------------------------------|
E|---------------------------------|
guitar 2
e|--------x------------x-----------|   
B|--------x------------x-----------|
G|--------6------------4-----------|
D|--------6------------4-----------|
A|--------4------------2-----------|
E|--------x------------x-----------|


    dard hudd..........gaaaa
guitar 1
e|----------2------4------5--------|
B|------2--------2------2------2---|
G|----2---2----2------2------2-----|
D|---------------------------------|
A|---------------------------------|
E|---------------------------------|
guitar 2
e|--------x------------x-----------|
B|--------x------------x-----------|
G|--------2------------4-----------|
D|--------2------------4-----------|
A|--------0------------2-----------|
E|--------x------------x-----------|


    koi ghum.......    mujhe
guitar 1
e|--------4----7p4-------4----7p4--|
B|----5--------------5-------------|
G|--6---6----6-----6---6----6------|
D|---------------------------------|
A|---------------------------------|
E|---------------------------------|
guitar 2
e|-------x------------x------------|   
B|-------x------------x------------|
G|-------6------------4------------|
D|-------6------------4------------|
A|-------4------------2------------|
E|-------x------------x------------|


    garr khaabon....... gai
guitar 1
e|----------2------4------5--------|
B|------2--------2------2------2---|
G|----2---2----2------2------2-----|
D|---------------------------------|
A|---------------------------------|
E|---------------------------------|
guitar 2
e|--------x------------x-----------|
B|--------x------------x-----------|
G|--------2------------4-----------|
D|--------2------------4-----------|
A|--------0------------2-----------|
E|--------x------------x-----------|


ab tho aadat si hai mujh ko aissay jeenay   meinnnnn
guitar 2
e|------4----------------2------------0------------2--| 
B|------5----------------4------------2------------4--| 
G|------6----------------4------------2------------4--| 
D|------6----------------4------------2------------4--| 
A|------4----------------2------------0------------2--| 
E|----------------------------------------------------| 
guitar 3
e|----------------------------------------------------|                  
B|------5------------5---4----------4-2----------2-4--|                  
G|------6-(let ring)-6---4(let ring)4-2(let ring)2-4--|                  
D|------6------------6---4----------4-2----------2-4--|                  
A|------4------------4---2----------2-0----------0-2--|                  
E|----------------------------------------------------|


hey hey heyyyyyyyyy     oooooooooo   aaaaaaa     aaaaaaa                 
guitar 2
e|------x----------------x------------x------------x--|                  
B|------x----------------x------------x------------x--|                  
G|------6----------------4------------2------------4--|                  
D|------6----------------4------------2------------4--|                  
A|------4----------------2------------0------------2--|                  
E|------x----------------x------------x------------x--|                  
guitar 3
e|------77-7s9-9-9----77-7s9-9-9----77-7s5-5-5-5--55-5s7-7-7--|          
B|------55-5s7-7-7----55-5s7-7-7----55-5s3-3-3-3--33-3s5-5-5--|          
G|------66-6s8-8-8----66-6s8-8-8----66-6s4-4-4-4--44-4s6-6-6--|          
D|------------------------------------------------------------|          
A|------------------------------------------------------------|          
E|------------------------------------------------------------|    


      aaaaaaaa         aaaaaa      oooooo     oooo oooo  oooo  oo
guitar 2                                           |.... pm ....|
e|------x----------------x------------x------------xxxx--xxxx--xx--|
B|------x----------------x------------x------------xxxx--xxxx--xx--|
G|------6----------------4------------2------------4444--4444--44--|
D|------6----------------4------------2------------4444--4444--44--|
A|------4----------------2------------0------------2222--2222--22--|
E|------x----------------x------------x------------xxxx--xxxx--xx--|
guitar 3
e|------77-7s9-9-9----77-7s9-9-9----77-7s5-5-5-5--|
B|------55-5s7-7-7----55-5s7-7-7----55-5s3-3-3-3--|
G|------66-6s8-8-8----66-6s8-8-8----66-6s4-4-4-4--|
D|------------------------------------------------|
A|------------------------------------------------|
E|------------------------------------------------|


guitar 2 along with the aalaaps....again..same pattern:
e|--x------x------x------x--|
B|--x------x------x------x--|
G|--6------4------2------4--|
D|--6------4------2------4--|
A|--4------2------0------2--|
E|--x------x------x------x--|



then sumthin like the intro of aadat plays:

guitar 2
e|----------------------------------------------|
B|--44-555-55--44-555-55--44-555-55--44-555-55--|
G|--66-666-66--66-666-66--66-666-66--66-666-66--|
D|--66-666-66--66-666-66--66-666-66--66-666-66--|
A|--44-444-44--44-444-44--44-444-44--44-444-44--|
E|----------------------------------------------|


guitar 2
e|----------------------------------------------|
B|--44-555-55--44-555-55--44-555-55--44-555-55--|
G|--66-666-66--66-666-66--66-666-66--66-666-66--|
D|--66-666-66--66-666-66--66-666-66--66-666-66--|
A|--44-444-44--44-444-44--44-444-44--44-444-44--|
E|----------------------------------------------|
guitar1
e|------------------------444444444--555555555--|
B|------------------------444444444--555555555--|
G|----------------------------------------------|
D|----------------------------------------------|
A|----------------------------------------------|
E|----------------------------------------------|


the aadat verses:
duur jithna...    mujhse..paas teray mein...
guitar 2
e|-----4-----------2-----------0-----------2-----------|
B|-----5-----------4-----------2-----------4-----------|
G|-----6-----------4-----------2-----------4-----------|
D|-----6-----------4-----------2-----------4-----------|
A|-----4-----------2-----------0-----------2-----------|
E|-----------------------------------------------------|

ab tho aadat..  mujh koooo.. hoooo oooo oooooooo
guitar 2
e|-----4-----------2-----------0-----------2-----------|
B|-----5-----------4-----------2-----------4-----------|
G|-----6-----------4-----------2-----------4-----------|
D|-----6-----------4-----------2-----------4-----------|
A|-----4-----------2-----------0-----------2-----------|
E|-----------------------------------------------------|

aalaapsss
guitar 1
e|--------4---4---------2---2-----------0---------------2---2--|
B|--------5---5---------4---4---------2---2-------------4---4--|
G|------6---6---------4---4---------2-------2---------4---4----|
D|----6-------------4-------------2-----------2-----4----------|
A|--4-------------2-------------0-----------------2------------|
E|-------------------------------------------------------------|

aalaapsss
e|--------4---4---------2---2-----------0------------------2~--|
B|--------5---5---------4---4---------2---2----------------4~--|
G|------6---6---------4---4---------2-------2---------4--------|
D|----6-------------4-------------2-----------2-----4----------|
A|--4-------------2-------------0-----------------2------------|
E|-------------------------------------------------------------|


well...tht's it.. an-joyyy



- AyeN





Comments


Popular Jal tabs & chords
Yaqeen Bass Tabs
Aik Din Aai Ga Chords
Sajni 2 Chords
Teri Yaad 1 Chords
Addat 1 Tabs
Addat 3 Tabs
Rangon Mein 1 Tabs
Sutta Tabs
Chup Chup Ukulele
Ye Jo Halka Halka Ukulele


Song lyrics



↑ Back to top | Tablatures and chords are parodies/interpretations of the original songs. You may use it for private study, scholarship, research or language learning purposes only
© 2014 AZChords.com Contact us | Privacy policy | DMCA | Add/correct tabs | Request tabs | Top 50 tabs