>
 >
 >
Sajni

Sajni Guitar Tabs

Jal - Sajni chords, tabs, tablatures, lyrics

Guitar lessons | Add/correct | Request | Top 50 tabs Artists:  A B C D E F G H I J K L M N O P Q R S T U V W X Y Z 0-9

Sajni Guitar Tabs – Jal

CD, Sheet music, Poster

Do you like Sajni? Share with your friends now
ChordsChords v2Chords v3Chords v4Chords v5TabsTabs v2Tabs v3UkuleleUkulele v2
---------------------------------------------------------------------------
---------------------------------------------------------------------------

Tuning: Standard (EADGBe)

All power chords, not sure about the names

F# 244222
G# 466444
C# 446644
B  224422
D# 668866
 
Intro (00:00 to 00:09) Play it twice (Played with delay
						    effect)

e|-----------9-16-14-12-11-9-7-9-9-7-9---9-11-9-12-9-11-|
B|-7-9-9-7-9--------------------------------------------|
G|------------------------------------------------------|
D|------------------------------------------------------|
A|------------------------------------------------------|
E|------------------------------------------------------|
			      
(00:10 to 00:26) (01:04 to 01:20)
     
e|-2-4-4-2-4---4-9--7-6-4-2-4-4-2-4----4-6-4-7-4-6-|
B|-2-4-4-2-4---4-9--7-6-4-2-4-4-2-4----4-6-4-7-4-6-|
G|-2-4-4-2-4---6-11-9-8-6-4-6-6-4-6----6-8-6-9-6-8-|
D|-4-6-6-4-6---6-11-9-8-6-4-6-6-4-6----6-8-6-9-6-8-|
A|-4-6-6-4-6---4-9--7-6-4-2-4-4-2-4----4-6-4-7-4-6-|
E|-2-4-4-2-4---4-9--7-6-4-2-4-4-2-4----4-6-4-7-4-6-|

(00:27 to 00:32) (00:35 to 00:40)

     v ^ V v   v ^ 
e|-2-4-4-4-4-2-4-4--4-2-4-4-|
B|-2-4-4-4-4-2-4-4--4-2-4-4-|
G|-2-4-4-4-4-2-4-4--4-2-4-4-|
D|-4-6-6-6-6-4-6-6--6-4-6-6-|
A|-4-6-6-6-6-4-6-6--6-4-6-6-|
E|-2-4-4-4-4-2-4-4--4-2-4-4-|

Mein teri aankhoon mein rahta hoon / Tere har pal mein guzra hoon

(00:32 to 00:35) (00:41 to 00:44)
 
     v ^ V v   v ^ 
e|-2-4-4-4-4-2-4-4--4-2-4-4-|
B|-2-4-4-4-4-2-4-4--4-2-4-4-|
G|-4-6-6-6-6-4-6-6--6-4-6-6-|
D|-4-6-6-6-6-4-6-6--6-4-6-6-|
A|-2-4-4-4-4-2-4-4--4-2-4-4-|
E|-2-4-4-4-4-2-4-4--4-2-4-4-|

Tujhe pata na chale / Tujhe pata na chale

(00:45 to 01:02) (01:39 to 01:56) around 4 times i think

e|-------------------------------------------12---|
B|---12-11-7-12-7----12-11-7-12-7---12--11-7----7-|
G|-9---9-----------9---9-----------9---9----------|
D|------------------------------------------------|
A|------------------------------------------------|
E|------------------------------------------------|

Kare to phir kya kare
Tere bin kase jeeyay
Aankhhon mein pyaar liye 
Bolo khaan khaan pherey

	(Second Intro Thing again - Chords)


(01:20 to 01:25) (01:29 to 01:34)
 
     v ^ V v   v ^ 
e|-2-4-4-4-4-2-4-4--4-2-4-4-|
B|-2-4-4-4-4-2-4-4--4-2-4-4-|
G|-2-4-4-4-4-2-4-4--4-2-4-4-|
D|-4-6-6-6-6-4-6-6--6-4-6-6-|
A|-4-6-6-6-6-4-6-6--6-4-6-6-|
E|-2-4-4-4-4-2-4-4--4-2-4-4-|

Khafa to hum bhi hein tum bhi ho / Judai ka mujhe gham bhi hai

(01:25 to 01:29) (01:35 to 01:39)

     v ^ V v   v ^ 
e|-2-4-4-4-4-2-4-4--4-2-4-4-|
B|-2-4-4-4-4-2-4-4--4-2-4-4-|
G|-4-6-6-6-6-4-6-6--6-4-6-6-|
D|-4-6-6-6-6-4-6-6--6-4-6-6-|
A|-2-4-4-4-4-2-4-4--4-2-4-4-|
E|-2-4-4-4-4-2-4-4--4-2-4-4-|

Humein pata na chale / Koi aesi khta na kare


(Same as above) - 01:39 to 01:56


(01:56 to 02:05) (02:05 to 02:14) 

 G#     F#    G#   C#
Sajni pass bulao na
        B   C#     B
Yeh dil aaj toota hai
   C#  B    C#
aaj toota hai
 G#    F#   G#   C#
Sajan maan jao na
     B   C#     B    C#
Ke woh aaj rhoota hai 
  B    C# 
aaj rhoota hai

(02:14 to 02:32)

e|-------------------------------------------12---|
B|---12-11-7-12-7----12-11-7-12-7---12--11-7----7-|
G|-9---9-----------9---9-----------9---9----------|
D|------------------------------------------------|
A|------------------------------------------------|
E|------------------------------------------------|

Koi use maanae na
Jaane jaan 
dil tooje hi chahe naa
ohoo hoo hoo hoo ohoo hoo hoo hooo hoooooo

Solo: (02:33 to 03:12)

Okey this might not be good enough, tabbed it in a very short time 
i am getting sick of the music now. Its the simplified version hope it would still work.

e|-------------------------------6h7-6-6---6-4/2-0--------------|
B|--------------11-9h11-11-11----------------------4-5-5\7-5-4-2|
G|------8-11-13-------------------------------------------------|
D|-6-8-9--------------------------------------------------------|
A|--------------------------------------------------------------|
E|--------------------------------------------------------------|

e|-----------------------------------------------------------|
B|---0h2--2---------------------------------------------2h4-4|
G|-4----4--4-----------4-4-4/3-3-3---3-4-6-6-4-6-6-6-4-6-----|
D|-----------6-4---4-6---------------------------------------|
A|---------------6-------------------------------------------|
E|-----------------------------------------------------------|

e|-----------4-6-8-9-9-12-11-12-9  --4-7-4-6-7---|
B|----------4------------------------------------|
G|-------4h6-------------------------------------|
D|----4h6----------------------------------------|
A|-4h6-------------------------------------------|
E|-----------------------------------------------|

e|-7-11-9h12-12-12--6-9-7h11-11-11--4-7-6h9-9-9-----7-4-7-4-7-2|
B|-------------------------------------------------------------|
G|-------------------------------------------------------------|
D|-------------------------------------------------------------|
A|-------------------------------------------------------------|
E|-------------------------------------------------------------|


e|-4-7-4-6-7--------------------------|
B|------------------------------------|
G|------------------------------4-4~6-|
D|------------------2-4-----4h6-------|
A|---------------2-4-----4h6----------|
E|------------4-6---------------------|

(03:11 to 03:31)

 G#                    F#
Humein dilse bholao na
      C#             B
Yahi aab khahna hai aab khahna hai
 G#         F#
Tum Paas aoo na
 C# *==>strum many times accordingly
Aao na

(03:31 to 03:54) strum pattern is easy, pick it from the song

D# once then 
	D# D# C# (03:31 to 03:54) ===> Vocal solo/scale +            
							Sajni Pass Bolao na
							Sajan maan jao na
							Sajni Pass Bolao na

(03:55 to 04:15)
						
 G#     F#      C#
Sajni pass bulao na
        B   C#     B
Yeh dil aaj toota hai
   C#  B    C#
aaj toota hai
 G#    F#   C#  B   C#
Sajan maan jao na
	
(04:15 to 04:35) 3 or 4 times G# F# C# B

woh hoo hoo hoo hoo 
woh ho ho oho ho ho hooo
woh ho who ho ho
woh ho ho ho ho ho ho ho ho

Soft strum 

G#    F#  G#   C#
Sajni Paas bola na
G#    F#  G#   C#
Sajan Maan jao na
G#    F#  G#    C#
Sajni Paas bola na

Here is sajni, worked hard on this, i am pretty sure its accurate. 
I just tabbed the main guitar. There is this second one playing 
these riffs at certain times. Gave the chord sequence in the begining,
its followed afterwards. I am sure you people would get it. It was being 
a bit too much now. So might have missed one or two chords sorry for

| /  slide up
| \  slide down
| h  hammer-on
===========================================================================





Comments


Popular Jal tabs & chords
Dil Hare Bass Tabs
Woh Lamhey Bass Tabs
Aadat Chords
Kuch Iss Tarha Chords
Mahia Chords
Sajni 3 Chords
Dil Hare (Intro) Tabs
Teri Yaad (Intro) Tabs
Aik Din Aye Ga Ukulele
Pe Jaon Ukulele


Song lyrics



↑ Back to top | Tablatures and chords are parodies/interpretations of the original songs. You may use it for private study, scholarship, research or language learning purposes only
© 2014 AZChords.com Contact us | Privacy policy | DMCA | Add/correct tabs | Request tabs | Top 50 tabs