>
 >
 >
Addat 2

Addat 2 Guitar Tabs

Jal - Addat 2 chords, tabs, tablatures, lyrics

Guitar lessons | Add/correct | Request | Top 50 tabs Artists:  A B C D E F G H I J K L M N O P Q R S T U V W X Y Z 0-9

Addat 2 Guitar Tabs – Jal

CD, Sheet music, Poster

Do you like Addat 2? Share with your friends now
TabsTabs v2Tabs v3Tabs v4
CHORDS:
A Bsus2 A/C#add7 A/C#add9 C#sus2 C#m A5 C#5 B5
002220 224422 002242 002255 446644 446654 577000 046600 024400



e|-------------4------4------4------4--------|
B|--------4------4------4------4------4------|
G|------6---6------6------6------6------6----| 
D|----6--------------------------------------| 
A|-------------------------------------------|
E|-------------------------------------------|


Aaaaaaaaaaaaaaaaaaaaaaaaaaaaaaaaaaaaaaaaaaaaaaaaaa aaaaaaaaaaaaaaa 
e|-------------4------4------4------4--------|------------2-----2-----2-----2--------|
B|--------4------4------4------4------4------|-------2------2-----2-----2-----2------|
G|------6---6------6------6------6------6----|-----4---4------4-----4-----4-----4----|
D|----6--------------------------------------|---4-----------------------------------| 
A|-------------------------------------------|---------------------------------------|
E|-------------------------------------------|---------------------------------------|

Najane Kab say 
e|-------------4------4------4------4--------|
B|--------4------4------4------4------4------|
G|------6---6------6------6------6------6----|
D|----6--------------------------------------| 
A|-------------------------------------------|
E|-------------------------------------------|

Umedain kuch baaqi hainnnnnnnnnnn
e|-------------4------4------4------4--------|------------2-----2-----2-----2--------|
B|--------4------4------4------4------4------|-------2------2-----2-----2-----2------|
G|------6---6------6------6------6------6----|-----4---4------4-----4-----4-----4----|
D|----6--------------------------------------|---4-----------------------------------| 
A|-------------------------------------------|---------------------------------------|
E|-------------------------------------------|---------------------------------------|

Mujhey phir bhi teri yaadddddddddddd kyonnnnnnn
e|-------------4------4------4------4--------|-------------4-----4-----4-----4-------|
B|--------4------4------4------4------4------|-------4-------4-----4-----4-----4-----|
G|------6---6------6------6------6------6----|-----6---6-------6-----6-----6-----6---|
D|----6--------------------------------------|---6-----------------------------------| 
A|-------------------------------------------|---------------------------------------|
E|-------------------------------------------|---------------------------------------|

aati haiiiiiiiiii Najane Kab say ................. 
e|-------------2------2------2------2--------|---4---|
B|--------2------2------2------2------2------|---4---|
G|------4---4------4------4------4------4----|---6---| 
D|----4--------------------------------------|---6---| 
A|-------------------------------------------|---x---|
E|-------------------------------------------|---x---|



[0:50] (now rhythm kicks in)

C#sus2 - C#m , C#sus2 - C#m , A/C#add7 - A/C#add9 , A/C#add7 - A/C#add9 x 1


[1:00]

C#sus2 - C#m , C#sus2 - C#m , A/C#add7 - A/C#add9 , A/C#add7 - A/C#add9 x 1


e|---------4-------------4-------------2--------2----|
B|-------4---4---------4---4---------2---2------2----|
G|-----6-------6-----6-------6-----4-------4----4----|
D|---6-------------6-------------4--------------4----| 
A|----------------------------------------------2----|
E|----------------------------------------------2----|


[1:08]

C#sus2 Bsus2 A Bsus2 
Duur jitna bhi tum mujh say, paas teray main
C#sus2 Bsus2 A Bsus2 
Ab to Aadat si hai mujko aisay jeenay main
C#sus2 Bsus2 A Bsus2
Zindagi say koi shikwa hi nahin hai
C#sus2 Bsus2 A Bsus2 
Ab to zinda houn mein is neelay aasmaan main


[1:44] ([x] = its upto you if you wanna play it)

chords played : C#sus2, A, C#sus2, A, Bsus2

e|----------4------7--4--------4-----7--4----|---------2-------2-------2-----------|
B|--------4----[4]-----------4---[4]---------|-------2-------2-------2-----2-------|
G|------6------------------6-----------------|-----4-------4-------4---------4-----|
D|----6------------------6-------------------|---4---------------------------------| 
A|-------------------------------------------|-------------------------------------|
E|-------------------------------------------|-------------------------------------|



e|----------4------7--4--------4-----7--4----|---------2-----------2--------|
B|--------4----[4]-----------4---[4]---------|-------2-------------2--------|
G|------6------------------6-----------------|-----4-------4-------4--------|
D|----6------------------6-------------------|---4-----------------4--------| 
A|-------------------------------------------|---------------------x--------|
E|-------------------------------------------|---------------------x--------|


[2:02]

C#sus2 Bsus2 A Bsus2 
Chahat aisi hai yay teri, barhti jayay
C#sus2 Bsus2 A Bsus2 
Aahat aisi hai yay teri mujh ko satayay
C#sus2 Bsus2 A Bsus2 
Yaadain gehri hain itni dil duub jaayay
C#sus2 Bsus2 A Bsus2 
Aur aankhon main yay ghum num ban jayay
C#m Bsus2 A Bsus2 
Hayhayyyyyyyyyyyy ooooooooooooo HOoooooooooooo



[2:46] (m = mute)

e|--------------------------------------------------------------------
B|---5-7--9m-9m-9---7-5--4m-4m-4-4---4-5-4-2--5m-5---5s7--5-4---------
G|--------------------------------------------------------------------
D|--------------------------------------------------------------------
A|--------------------------------------------------------------------
E|--------------------------------------------------------------------

e|----------------------------------------------------------------------
B|-5-7-9m-9-9m-9-9--9/12--14--14s16--14--12-12--12-10-10/12-10--10p9s7--
G|----------------------------------------------------------------------
D|----------------------------------------------------------------------
A|----------------------------------------------------------------------
E|----------------------------------------------------------------------



[3:05]

C#sus2 Bsus2 A Bsus2 
Ab to Aadat si hai mujko aisay jeenay main


[3:15]

(electric guitar as rhythm)

Heyheyyyyyy ooooooo Hooooooooooooooo
-
Aaaaaaaaaaaaaaaaaaaaa oooooooooooooooo
e|---4---7-----4---7-----4---2---4---x--------
B|---4---7-----4---7-----4---2---4---x--------
G|---6---8-----6---8-----6---4---6---x--------
D|---6---9-----6---9-----6---4---6---7--------
A|---4---9-----4---9-----4---2---4---7--------
E|---4---7-----4---7-----4---2---4---5--------


[3:32]

C#5 A5 B5
Sabhi raatain hain, sabhi baatain hain
C#5 A5 B5
Bhulado unhain mitado unhain

[3:49]

rhythm: 

C#5 - C#5 - A5 - B5 - C#5 - A5 - B5 - C#5 C#sus2
AAAAAAAAAAaaaaaaaaaaaaaaaaaaaaa oooooooooo (single strum)


[4:08] 

(acoustic) [fill 1] [fill 2] [fill 1] [half of fill 2]
e|----------4------------------2------------------4-------------------2---|
B|--------4------------------2------------------4-------------------2-----| 
G|------6------------------4------------------6-------------------4-------|
D|----6------------------4------------------6-------------------4---------| 
A|------------------------------------------------------------------------|
E|------------------------------------------------------------------------|

little fill in between the above pattern: 

(acoustic: finger picking)

fill 1 fill 2
e-----4---4------|----2---2--|
B---4---4--------|--2---2----|



Ab to Aadat si hai mujko.





Comments


Popular Jal tabs & chords
Aadat Chords
Bheegi Yaadien Chords
Bikhra Hon Main 1 Tabs
Dil Hare Tabs
Raatein Intro Tabs
Bikhra Hoon Main Ukulele
Chalte Chalte Ukulele
Humein Itna Pyar Ukulele
Sajni 2 Ukulele
Ye Jo Halka Halka Ukulele


Song lyrics



↑ Back to top | Tablatures and chords are parodies/interpretations of the original songs. You may use it for private study, scholarship, research or language learning purposes only
© 2014 AZChords.com Contact us | Privacy policy | DMCA | Add/correct tabs | Request tabs | Top 50 tabs