» » »

Jal, Addat Tabs (ver.1)

Artists:  A B C D E F G H I J K L M N O P Q R S T U V W X Y Z # 

Addat Tabs (ver.1)

Jal Tabs
Rating:
4/5 (1 vote)
Addat lessons Tabs too difficult? Try these video lessons and learn fast
                Standard Tuning
Intro ;                                                        ( 2x )
e|-------------------------------------------------------------------|
b|----------4------4------4------4-----------------------------------|
g|-----6------6------6------6------6---------------------------------|
d|---6---6------6------6------6------6-------------------------------|
a|-4-----------------------------------------------------------------|
e|-------------------------------------------------------------------|
 
This is the first arpeggio . After playin this twice he plays another 
arpeggio , which is slightly diferent.    
                                                               ( 1x )
e|-------------------------------------------------------------------|
b|----------5------5------5------5-----------------------------------|
g|-----6------6------6------6------6---------------------------------|
d|---6---6------6------6------6------6-------------------------------|
a|-4-----------------------------------------------------------------|
e|-------------------------------------------------------------------|

Basically the second arpeggio is played once everytime after the first  arpeggio is played twice.
Then the vocals come in after which he plays these 4 chords. Listen to the song to figure out the
rhythm.
                                                               ( 2x ) 
e|-------------------------------------------------------------------|
b|------4-----5-----4-----5------------------------------------------|
g|------6-----6-----6-----6------------------------------------------|
d|------6-----6-----7-----7------------------------------------------|
a|------4-----4-----4-----4------------------------------------------|
e|-------------------------------------------------------------------|
 
After these chords are played once the lead electric guitar plays this. 
                                                               ( 1x )  
e|----------0--------------------0-----------------0----------0------|
b|-2--0--2-----2--0-----2--0--2-----2--0------0-------0-------0------|
g|------------------------------------------2---2--------2----2------|
d|-------------------------------------------------------------------|
a|-------------------------------------------------------------------|
e|-------------------------------------------------------------------|
  
Then comes the verse/chorus. 

e|-------------------------------------------------------------------|
b|------5-----4-----2-----4------------------------------------------|
g|------6-----4-----2-----4------------------------------------------|
d|------6-----4-----2-----4------------------------------------------|
a|------4-----2-----0-----2------------------------------------------|
e|-----------------------------------=-------------------------------|
 
The second lead part comes during the verse.  
                                                              
e|-------4----7--4--------4----7--4----------2------4------5---------|
b|---5-----5----------5-----5------------2-----2------2------2-------|
g|-6---6------------6---6--------------2---2-----2------2------2-----|
d|-------------------------------------------------------------------|
a|-------------------------------------------------------------------|
e|-------------------------------------------------------------------|
                                                               
e|-------4----7--4--------4----7--4----------2-------2---------------|
b|---5-----5----------5-----5------------2-----------2---------------|
g|-6---6------------6---6--------------2---2----2----2---------------|
d|-------------------------------------------------------------------|
a|-------------------------------------------------------------------|
e|-------------------------------------------------------------------|
  
Then he plays the verse again after which he plays the solo. 
 

e|-4--5--4-4-4-----------------------------------------------4--5--4-|
b|---------------7--5--4-4-4---4--5--4--2--5-5--5h7--5---------------|
g|-------------------------------------------------------------------|
d|-------------------------------------------------------------------|
a|-------------------------------------------------------------------|
e|-------------------------------------------------------------------| 


e|-4--7--9--7--9s11--9--7-7-7--5h7--5--4--2--------------------------|
b|-------------------------------------------------------------------|
g|-------------------------------------------------------------------|
d|-------------------------------------------------------------------|
a|-------------------------------------------------------------------|
e|-------------------------------------------------------------------| 

During the solo this is played in the background. 

e|-------------------------------------------------------------------|
b|---------5-------------4-------------2-------------4---------------|
g|-----6---6---------4---4---------2---2---------4---4---------------|
d|---6-----6-------4-----4-------2-----2-------4-----4---------------|
a|-4-------4-----2-------2-----0-------0-----2-------2---------------|
e|-------------------------------------------------------------------| 

After this , this is played together with the verse. 
                                                               ( 2x )  
e|-7--7--7-9--9-9---7--7--7-9--9-9---7-7--5--5-5--5-7--7-7--7-7------|
b|-5--5--5s7--7-7---5--5--5s7--7-7---5-5--3--3-3--3s5--5-5--5-5------|
g|-6--6--6-8--8-8---6--6--6-8--8-8---6-6--4--4-4--4-6--6-6--6-6------|
d|-------------------------------------------------------------------|
a|-------------------------------------------------------------------|
e|-------------------------------------------------------------------|
 
Then comes the part with the distorted power chords. 
                                                               ( 2x )
e|-------------------------------------------------------------------|
b|-------------------------------------------------------------------|
g|-6-6-6-6-6-6-6---6-6-6-6-6-6-6---2-2-2-2-2-2-2---4-4-4-4-4-4-4-----|
d|-6-6-6-6-6-6-6---6-6-6-6-6-6-6---2-2-2-2-2-2-2---4-4-4-4-4-4-4-----|
a|-4-4-4-4-4-4-4---4-4-4-4-4-4-4---0-0-0-0-0-0-0---2-2-2-2-2-2-2-----|
e|-------------------------------------------------------------------| 

Then these same chords are played in the same rhythm as the verse ( but
 in a different pattern ) along with the verse. 

e|-------------------------------------------------------------------|
b|------6-----4-----2-----4------------------------------------------|
g|------6-----4-----2-----4------------------------------------------|
d|------4-----2-----0-----2------------------------------------------|
a|-------------------------------------------------------------------|
e|-------------------------------------------------------------------|
| 
Finally , the song ends with this.

e|-------------------------------------------------------------------|
b|---------5-------------4-------------2-------------4---------------|
g|-----6---6---------4---4---------2---2---------4---4---------------|
d|---6-----6-------4-----4-------2-----2-------4-----4---------------|
a|-4-------4-----2-------2-----0-------0-----2-------2---------------|
e|-------------------------------------------------------------------| 

Well , thats it.
            

comments powered by Disqus
↑ Back to top | Jal Tabs for Addat. Lyrics for acoustic guitar and electric guitar. Tablatures and chords are parodies/interpretations of the original songs. You may use it for private study, scholarship, research or language learning purposes only